  0
SECTION
  2
HEADER
  9
$ACADVER
  1
AC1014
  9
$HANDSEED
  5
FFFF
  9
$MEASUREMENT
 70
     1
  0
ENDSEC
  0
SECTION
  2
TABLES
  0
TABLE
  2
VPORT
  5
8
330
0
100
AcDbSymbolTable
 70
     4
  0
VPORT
  5
2E
330
8
100
AcDbSymbolTableRecord
100
AcDbViewportTableRecord
  2
*ACTIVE
 70
     0
 10
0.0
 20
0.0
 11
1.0
 21
1.0
 12
210.0
 22
148.5
 13
0.0
 23
0.0
 14
10.0
 24
10.0
 15
10.0
 25
10.0
 16
0.0
 26
0.0
 36
1.0
 17
0.0
 27
0.0
 37
0.0
 40
341.0
 41
1.24
 42
50.0
 43
0.0
 44
0.0
 50
0.0
 51
0.0
 71
     0
 72
   100
 73
     1
 74
     3
 75
     0
 76
     0
 77
     0
 78
     0
  0
ENDTAB
  0
TABLE
  2
LTYPE
  5
5
330
0
100
AcDbSymbolTable
 70
     1
  0
LTYPE
  5
14
330
5
100
AcDbSymbolTableRecord
100
AcDbLinetypeTableRecord
  2
BYBLOCK
 70
     0
  3

 72
    65
 73
     0
 40
0.0
  0
LTYPE
  5
15
330
5
100
AcDbSymbolTableRecord
100
AcDbLinetypeTableRecord
  2
BYLAYER
 70
     0
  3

 72
    65
 73
     0
 40
0.0
  0
LTYPE
  5
16
330
5
100
AcDbSymbolTableRecord
100
AcDbLinetypeTableRecord
  2
CONTINUOUS
 70
     0
  3
Solid line
 72
    65
 73
     0
 40
0.0
  0
ENDTAB
  0
TABLE
  2
LAYER
  5
2
100
AcDbSymbolTable
 70
2
  0
LAYER
  5
50
100
AcDbSymbolTableRecord
100
AcDbLayerTableRecord
  2
0
 70
0
  6
CONTINUOUS
  0
LAYER
  5
51
100
AcDbSymbolTableRecord
100
AcDbLayerTableRecord
  2
Calque_1
 70
0
  6
CONTINUOUS
  0
ENDTAB
  0
TABLE
  2
STYLE
  5
3
330
0
100
AcDbSymbolTable
 70
     1
  0
STYLE
  5
11
330
3
100
AcDbSymbolTableRecord
100
AcDbTextStyleTableRecord
  2
STANDARD
 70
     0
 40
0.0
 41
1.0
 50
0.0
 71
     0
 42
2.5
  3
txt
  4

  0
ENDTAB
  0
TABLE
  2
VIEW
  5
6
330
0
100
AcDbSymbolTable
 70
     0
  0
ENDTAB
  0
TABLE
  2
UCS
  5
7
330
0
100
AcDbSymbolTable
 70
     0
  0
ENDTAB
  0
TABLE
  2
APPID
  5
9
330
0
100
AcDbSymbolTable
 70
     2
  0
APPID
  5
12
330
9
100
AcDbSymbolTableRecord
100
AcDbRegAppTableRecord
  2
ACAD
 70
     0
  0
ENDTAB
  0
TABLE
  2
DIMSTYLE
  5
A
330
0
100
AcDbSymbolTable
 70
     1
  0
DIMSTYLE
105
27
330
A
100
AcDbSymbolTableRecord
100
AcDbDimStyleTableRecord
  2
ISO-25
 70
     0
  3

  4

  5

  6

  7

 40
1.0
 41
2.5
 42
0.625
 43
3.75
 44
1.25
 45
0.0
 46
0.0
 47
0.0
 48
0.0
140
2.5
141
2.5
142
0.0
143
0.03937007874016
144
1.0
145
0.0
146
1.0
147
0.625
 71
     0
 72
     0
 73
     0
 74
     0
 75
     0
 76
     0
 77
     1
 78
     8
170
     0
171
     3
172
     1
173
     0
174
     0
175
     0
176
     0
177
     0
178
     0
270
     2
271
     2
272
     2
273
     2
274
     3
340
11
275
     0
280
     0
281
     0
282
     0
283
     0
284
     8
285
     0
286
     0
287
     3
288
     0
  0
ENDTAB
  0
TABLE
  2
BLOCK_RECORD
  5
1
330
0
100
AcDbSymbolTable
 70
     1
  0
BLOCK_RECORD
  5
1F
330
1
100
AcDbSymbolTableRecord
100
AcDbBlockTableRecord
  2
*MODEL_SPACE
  0
BLOCK_RECORD
  5
1B
330
1
100
AcDbSymbolTableRecord
100
AcDbBlockTableRecord
  2
*PAPER_SPACE
  0
ENDTAB
  0
ENDSEC
  0
SECTION
  2
BLOCKS
  0
BLOCK
  5
20
330
1F
100
AcDbEntity
  8
0
100
AcDbBlockBegin
  2
*MODEL_SPACE
 70
     0
 10
0.0
 20
0.0
 30
0.0
  3
*MODEL_SPACE
  1

  0
ENDBLK
  5
21
330
1F
100
AcDbEntity
  8
0
100
AcDbBlockEnd
  0
BLOCK
  5
1C
330
1B
100
AcDbEntity
 67
     1
  8
0
100
AcDbBlockBegin
  2
*PAPER_SPACE
  1

  0
ENDBLK
  5
1D
330
1B
100
AcDbEntity
 67
     1
  8
0
100
AcDbBlockEnd
  0
ENDSEC
  0
SECTION
  2
ENTITIES
  0
SPLINE
  5
100
100
AcDbEntity
  8
Calque_1
 62
7
100
AcDbSpline
 70
0
 71
3
 72
37
 73
33
 74
31
 40
0.000000
 40
0.000000
 40
0.000000
 40
0.000000
 40
0.244902
 40
0.460280
 40
0.648904
 40
0.817596
 40
0.977349
 40
1.134995
 40
1.299143
 40
1.477118
 40
1.673322
 40
1.892781
 40
2.138657
 40
2.411688
 40
2.579653
 40
2.744082
 40
2.905240
 40
3.058148
 40
3.204708
 40
3.345819
 40
3.483046
 40
3.615892
 40
3.746749
 40
3.878525
 40
4.016125
 40
4.164167
 40
4.439244
 40
4.721065
 40
5.009976
 40
5.301834
 40
5.584781
 40
5.858853
 40
5.858853
 40
5.858853
 40
5.858853
 10
25.463655
 20
21.105266
 30
0.0
 10
25.381997
 20
21.103576
 30
0.0
 10
25.228526
 20
21.100399
 30
0.0
 10
25.013541
 20
21.071236
 30
0.0
 10
24.828895
 20
21.020958
 30
0.0
 10
24.669621
 20
20.952807
 30
0.0
 10
24.536230
 20
20.858513
 30
0.0
 10
24.427402
 20
20.738855
 30
0.0
 10
24.342643
 20
20.594299
 30
0.0
 10
24.278788
 20
20.425816
 30
0.0
 10
24.236484
 20
20.231996
 30
0.0
 10
24.209696
 20
20.012965
 30
0.0
 10
24.193092
 20
19.767306
 30
0.0
 10
24.188514
 20
19.538320
 30
0.0
 10
24.191705
 20
19.336478
 30
0.0
 10
24.201827
 20
19.172267
 30
0.0
 10
24.215237
 20
19.013202
 30
0.0
 10
24.243648
 20
18.862053
 30
0.0
 10
24.281425
 20
18.720080
 30
0.0
 10
24.327773
 20
18.585905
 30
0.0
 10
24.391169
 20
18.463848
 30
0.0
 10
24.467088
 20
18.353515
 30
0.0
 10
24.555357
 20
18.254945
 30
0.0
 10
24.660727
 20
18.171857
 30
0.0
 10
24.785836
 20
18.108599
 30
0.0
 10
24.966399
 20
18.058348
 30
0.0
 10
25.196276
 20
18.009982
 30
0.0
 10
25.473936
 20
17.960413
 30
0.0
 10
25.759079
 20
17.922986
 30
0.0
 10
26.045219
 20
17.891189
 30
0.0
 10
26.326291
 20
17.858546
 30
0.0
 10
26.510789
 20
17.837690
 30
0.0
 10
26.601568
 20
17.827429
 30
0.0
 11
25.463655
 21
21.105266
 31
0.0
 11
25.218958
 21
21.095239
 31
0.0
 11
25.005698
 21
21.065113
 31
0.0
 11
24.823901
 21
21.014826
 31
0.0
 11
24.669780
 21
20.946241
 31
0.0
 11
24.539545
 21
20.853722
 31
0.0
 11
24.433227
 21
20.737323
 31
0.0
 11
24.349003
 21
20.596430
 31
0.0
 11
24.284959
 21
20.430377
 31
0.0
 11
24.240991
 21
20.239163
 31
0.0
 11
24.212630
 21
20.021544
 31
0.0
 11
24.195546
 21
19.776262
 31
0.0
 11
24.189831
 21
19.503291
 31
0.0
 11
24.193017
 21
19.335357
 31
0.0
 11
24.202519
 21
19.171202
 31
0.0
 11
24.218251
 21
19.010814
 31
0.0
 11
24.245918
 21
18.860430
 31
0.0
 11
24.283635
 21
18.718806
 31
0.0
 11
24.331423
 21
18.586033
 31
0.0
 11
24.394297
 21
18.464058
 31
0.0
 11
24.469729
 21
18.354704
 31
0.0
 11
24.557765
 21
18.257889
 31
0.0
 11
24.661543
 21
18.176680
 31
0.0
 11
24.784184
 21
18.114286
 31
0.0
 11
24.925702
 21
18.070821
 31
0.0
 11
25.194373
 21
18.011804
 31
0.0
 11
25.471926
 21
17.962946
 31
0.0
 11
25.758209
 21
17.924059
 31
0.0
 11
26.048145
 21
17.890618
 31
0.0
 11
26.329245
 21
17.858350
 31
0.0
 11
26.601568
 21
17.827429
 31
0.0
  0
SPLINE
  5
101
100
AcDbEntity
  8
Calque_1
 62
7
100
AcDbSpline
 70
0
 71
3
 72
13
 73
9
 74
7
 40
0.000000
 40
0.000000
 40
0.000000
 40
0.000000
 40
0.131520
 40
0.268112
 40
0.410020
 40
0.553202
 40
0.692330
 40
0.827349
 40
0.827349
 40
0.827349
 40
0.827349
 10
26.601568
 20
17.827429
 30
0.0
 10
26.612436
 20
17.869906
 30
0.0
 10
26.634592
 20
17.956499
 30
0.0
 10
26.660842
 20
18.090728
 30
0.0
 10
26.680260
 20
18.229959
 30
0.0
 10
26.702356
 20
18.369629
 30
0.0
 10
26.721281
 20
18.507457
 30
0.0
 10
26.732126
 20
18.598194
 30
0.0
 10
26.737468
 20
18.642883
 30
0.0
 11
26.601568
 21
17.827429
 31
0.0
 11
26.632972
 21
17.955145
 31
0.0
 11
26.659298
 21
18.089176
 31
0.0
 11
26.680628
 21
18.229472
 31
0.0
 11
26.702078
 21
18.371038
 31
0.0
 11
26.721058
 21
18.508865
 31
0.0
 11
26.737468
 21
18.642883
 31
0.0
  0
SPLINE
  5
102
100
AcDbEntity
  8
Calque_1
 62
7
100
AcDbSpline
 70
0
 71
3
 72
25
 73
21
 74
19
 40
0.000000
 40
0.000000
 40
0.000000
 40
0.000000
 40
0.113843
 40
0.236499
 40
0.367991
 40
0.500158
 40
0.632345
 40
0.764512
 40
0.895565
 40
1.024112
 40
1.150143
 40
1.265428
 40
1.369366
 40
1.462071
 40
1.538627
 40
1.605528
 40
1.669854
 40
1.736412
 40
1.809642
 40
1.891537
 40
1.891537
 40
1.891537
 40
1.891537
 10
26.737468
 20
18.642883
 30
0.0
 10
26.699520
 20
18.643016
 30
0.0
 10
26.620687
 20
18.643292
 30
0.0
 10
26.498037
 20
18.645297
 30
0.0
 10
26.369305
 20
18.648495
 30
0.0
 10
26.237411
 20
18.652337
 30
0.0
 10
26.105306
 20
18.656456
 30
0.0
 10
25.973500
 20
18.658877
 30
0.0
 10
25.843176
 20
18.667587
 30
0.0
 10
25.714828
 20
18.674581
 30
0.0
 10
25.591751
 20
18.681867
 30
0.0
 10
25.476909
 20
18.689165
 30
0.0
 10
25.373213
 20
18.697402
 30
0.0
 10
25.282431
 20
18.702775
 30
0.0
 10
25.204085
 20
18.715885
 30
0.0
 10
25.141785
 20
18.749277
 30
0.0
 10
25.097421
 20
18.800253
 30
0.0
 10
25.074049
 20
18.864965
 30
0.0
 10
25.058257
 20
18.937364
 30
0.0
 10
25.056723
 20
18.989175
 30
0.0
 10
25.055913
 20
19.016527
 30
0.0
 11
26.737468
 21
18.642883
 31
0.0
 11
26.623627
 21
18.643516
 31
0.0
 11
26.500986
 21
18.645416
 31
0.0
 11
26.369532
 21
18.648583
 31
0.0
 11
26.237420
 21
18.652382
 31
0.0
 11
26.105287
 21
18.656174
 31
0.0
 11
25.973174
 21
18.659953
 31
0.0
 11
25.842331
 21
18.667372
 31
0.0
 11
25.713995
 21
18.674728
 31
0.0
 11
25.588184
 21
18.682173
 31
0.0
 11
25.473146
 21
18.689724
 31
0.0
 11
25.369487
 21
18.697329
 31
0.0
 11
25.277092
 21
18.704913
 31
0.0
 11
25.202186
 21
18.720719
 31
0.0
 11
25.143589
 21
18.753000
 31
0.0
 11
25.101393
 21
18.801553
 31
0.0
 11
25.076184
 21
18.863152
 31
0.0
 11
25.060995
 21
18.934790
 31
0.0
 11
25.055913
 21
19.016527
 31
0.0
  0
SPLINE
  5
103
100
AcDbEntity
  8
Calque_1
 62
7
100
AcDbSpline
 70
0
 71
3
 72
10
 73
6
 74
4
 40
0.000000
 40
0.000000
 40
0.000000
 40
0.000000
 40
0.018304
 40
0.035490
 40
0.051591
 40
0.051591
 40
0.051591
 40
0.051591
 10
25.055913
 20
19.061487
 30
0.0
 10
25.056034
 20
19.067588
 30
0.0
 10
25.056269
 20
19.079418
 30
0.0
 10
25.058088
 20
19.096557
 30
0.0
 10
25.060464
 20
19.107402
 30
0.0
 10
25.061613
 20
19.112647
 30
0.0
 11
25.055913
 21
19.061487
 31
0.0
 11
25.056546
 21
19.079780
 31
0.0
 11
25.058446
 21
19.096861
 31
0.0
 11
25.061613
 21
19.112647
 31
0.0
  0
SPLINE
  5
104
100
AcDbEntity
  8
Calque_1
 62
7
100
AcDbSpline
 70
0
 71
3
 72
34
 73
30
 74
28
 40
0.000000
 40
0.000000
 40
0.000000
 40
0.000000
 40
0.073314
 40
0.155523
 40
0.246627
 40
0.343015
 40
0.442089
 40
0.543798
 40
0.649904
 40
0.754658
 40
0.857949
 40
0.957431
 40
1.051675
 40
1.140904
 40
1.308589
 40
1.458956
 40
1.595668
 40
1.728319
 40
1.855309
 40
1.980397
 40
2.108054
 40
2.237283
 40
2.370206
 40
2.510295
 40
2.652730
 40
2.798171
 40
3.084803
 40
3.326030
 40
3.537868
 40
3.537868
 40
3.537868
 40
3.537868
 10
25.061613
 20
19.112647
 30
0.0
 10
25.085718
 20
19.108627
 30
0.0
 10
25.136854
 20
19.100098
 30
0.0
 10
25.218021
 20
19.087086
 30
0.0
 10
25.306609
 20
19.071596
 30
0.0
 10
25.401614
 20
19.061337
 30
0.0
 10
25.499769
 20
19.047991
 30
0.0
 10
25.601000
 20
19.033277
 30
0.0
 10
25.704193
 20
19.018852
 30
0.0
 10
25.808103
 20
19.005978
 30
0.0
 10
25.909786
 20
18.992562
 30
0.0
 10
26.008716
 20
18.987458
 30
0.0
 10
26.102939
 20
18.983360
 30
0.0
 10
26.219977
 20
18.981253
 30
0.0
 10
26.355915
 20
18.987916
 30
0.0
 10
26.505298
 20
19.017190
 30
0.0
 10
26.636583
 20
19.068177
 30
0.0
 10
26.748125
 20
19.140183
 30
0.0
 10
26.844793
 20
19.225514
 30
0.0
 10
26.921324
 20
19.327066
 30
0.0
 10
26.986317
 20
19.436824
 30
0.0
 10
27.037270
 20
19.556792
 30
0.0
 10
27.074160
 20
19.685998
 30
0.0
 10
27.098176
 20
19.822552
 30
0.0
 10
27.113519
 20
19.964463
 30
0.0
 10
27.120163
 20
20.156103
 30
0.0
 10
27.103866
 20
20.380042
 30
0.0
 10
27.039141
 20
20.623456
 30
0.0
 10
26.945560
 20
20.743666
 30
0.0
 10
26.901805
 20
20.799872
 30
0.0
 11
25.061613
 21
19.112647
 31
0.0
 11
25.133940
 21
19.100658
 31
0.0
 11
25.215068
 21
19.087373
 31
0.0
 11
25.305009
 21
19.072857
 31
0.0
 11
25.400665
 21
19.061000
 31
0.0
 11
25.498877
 21
19.047961
 31
0.0
 11
25.599564
 21
19.033577
 31
0.0
 11
25.704673
 21
19.019066
 31
0.0
 11
25.808580
 21
19.005778
 31
0.0
 11
25.911173
 21
18.993787
 31
0.0
 11
26.010457
 21
18.987506
 31
0.0
 11
26.104624
 21
18.983698
 31
0.0
 11
26.193843
 21
18.982417
 31
0.0
 11
26.361228
 21
18.992444
 31
0.0
 11
26.508547
 21
19.022567
 31
0.0
 11
26.635677
 21
19.072847
 31
0.0
 11
26.747674
 21
19.143931
 31
0.0
 11
26.842090
 21
19.228855
 31
0.0
 11
26.918863
 21
19.327612
 31
0.0
 11
26.983548
 21
19.437667
 31
0.0
 11
27.034303
 21
19.556512
 31
0.0
 11
27.071309
 21
19.684180
 31
0.0
 11
27.096515
 21
19.821983
 31
0.0
 11
27.111699
 21
19.963606
 31
0.0
 11
27.116779
 21
20.108958
 31
0.0
 11
27.092915
 21
20.394595
 31
0.0
 11
27.021279
 21
20.624940
 31
0.0
 11
26.901805
 21
20.799872
 31
0.0
  0
LWPOLYLINE
  5
105
100
AcDbEntity
  8
Calque_1
 62
7
100
AcDbPolyline
 90
2
 70
0
 10
25.055913
 20
19.016527
 30
0.0
 10
25.055913
 20
19.061487
 30
0.0
  0
SPLINE
  5
106
100
AcDbEntity
  8
Calque_1
 62
7
100
AcDbSpline
 70
0
 71
3
 72
16
 73
12
 74
10
 40
0.000000
 40
0.000000
 40
0.000000
 40
0.000000
 40
0.210972
 40
0.447128
 40
0.722932
 40
0.870556
 40
1.010604
 40
1.142995
 40
1.268940
 40
1.389743
 40
1.505472
 40
1.505472
 40
1.505472
 40
1.505472
 10
26.901805
 20
20.799872
 30
0.0
 10
26.848685
 20
20.846766
 30
0.0
 10
26.736105
 20
20.946153
 30
0.0
 10
26.505198
 20
21.029913
 30
0.0
 10
26.287849
 20
21.064664
 30
0.0
 10
26.100250
 20
21.075761
 30
0.0
 10
25.960603
 20
21.085743
 30
0.0
 10
25.828060
 20
21.094014
 30
0.0
 10
25.701847
 20
21.100557
 30
0.0
 10
25.581072
 20
21.104501
 30
0.0
 10
25.502227
 20
21.105024
 30
0.0
 10
25.463650
 20
21.105280
 30
0.0
 11
26.901805
 21
20.799872
 31
0.0
 11
26.735715
 21
20.929962
 31
0.0
 11
26.516760
 21
21.018437
 31
0.0
 11
26.244998
 21
21.065490
 31
0.0
 11
26.097765
 21
21.076218
 31
0.0
 11
25.958039
 21
21.085709
 31
0.0
 11
25.825902
 21
21.093910
 31
0.0
 11
25.700116
 21
21.100236
 31
0.0
 11
25.579373
 21
21.104021
 31
0.0
 11
25.463650
 21
21.105280
 31
0.0
  0
SPLINE
  5
107
100
AcDbEntity
  8
Calque_1
 62
7
100
AcDbSpline
 70
0
 71
3
 72
43
 73
39
 74
37
 40
0.000000
 40
0.000000
 40
0.000000
 40
0.000000
 40
0.069865
 40
0.158767
 40
0.266756
 40
0.388737
 40
0.512095
 40
0.636848
 40
0.762973
 40
0.883005
 40
0.997032
 40
1.099857
 40
1.179902
 40
1.237185
 40
1.280375
 40
1.320212
 40
1.359901
 40
1.401459
 40
1.453478
 40
1.518272
 40
1.579621
 40
1.630413
 40
1.676203
 40
1.720479
 40
1.769520
 40
1.825693
 40
1.902477
 40
1.996969
 40
2.109145
 40
2.230201
 40
2.358888
 40
2.495186
 40
2.632191
 40
2.770488
 40
2.910002
 40
3.044674
 40
3.167821
 40
3.279486
 40
3.279486
 40
3.279486
 40
3.279486
 10
25.090035
 20
20.007142
 30
0.0
 10
25.113322
 20
20.006683
 30
0.0
 10
25.166241
 20
20.005640
 30
0.0
 10
25.254969
 20
19.999367
 30
0.0
 10
25.360825
 20
19.989812
 30
0.0
 10
25.478035
 20
19.978253
 30
0.0
 10
25.600682
 20
19.964953
 30
0.0
 10
25.724574
 20
19.950373
 30
0.0
 10
25.847272
 20
19.935180
 30
0.0
 10
25.966241
 20
19.918907
 30
0.0
 10
26.076834
 20
19.899222
 30
0.0
 10
26.175095
 20
19.887294
 30
0.0
 10
26.254255
 20
19.875208
 30
0.0
 10
26.313868
 20
19.867410
 30
0.0
 10
26.359605
 20
19.855982
 30
0.0
 10
26.395105
 20
19.834228
 30
0.0
 10
26.421915
 20
19.803436
 30
0.0
 10
26.442381
 20
19.763436
 30
0.0
 10
26.452299
 20
19.711097
 30
0.0
 10
26.455667
 20
19.651757
 30
0.0
 10
26.451377
 20
19.592654
 30
0.0
 10
26.433230
 20
19.541860
 30
0.0
 10
26.399579
 20
19.507540
 30
0.0
 10
26.358867
 20
19.484486
 30
0.0
 10
26.310251
 20
19.471433
 30
0.0
 10
26.249470
 20
19.468136
 30
0.0
 10
26.173700
 20
19.470584
 30
0.0
 10
26.079279
 20
19.474188
 30
0.0
 10
25.970218
 20
19.480554
 30
0.0
 10
25.849862
 20
19.488817
 30
0.0
 10
25.721533
 20
19.498341
 30
0.0
 10
25.587953
 20
19.508896
 30
0.0
 10
25.451231
 20
19.520356
 30
0.0
 10
25.313456
 20
19.532036
 30
0.0
 10
25.176307
 20
19.542031
 30
0.0
 10
25.044688
 20
19.556957
 30
0.0
 10
24.922009
 20
19.567921
 30
0.0
 10
24.843964
 20
19.573860
 30
0.0
 10
24.806849
 20
19.576685
 30
0.0
 11
25.090035
 21
20.007142
 31
0.0
 11
25.159875
 21
20.005244
 31
0.0
 11
25.248595
 21
19.999557
 31
0.0
 11
25.356168
 21
19.990092
 31
0.0
 11
25.477558
 21
19.978103
 31
0.0
 11
25.600199
 21
19.964818
 31
0.0
 11
25.724104
 21
19.950302
 31
0.0
 11
25.849256
 21
19.934658
 31
0.0
 11
25.968101
 21
19.917820
 31
0.0
 11
26.080672
 21
19.899662
 31
0.0
 11
26.182557
 21
19.885792
 31
0.0
 11
26.261787
 21
19.874395
 31
0.0
 11
26.318383
 21
19.865552
 31
0.0
 11
26.359874
 21
19.853556
 31
0.0
 11
26.393794
 21
19.832665
 31
0.0
 11
26.420186
 21
19.803022
 31
0.0
 11
26.439096
 21
19.766016
 31
0.0
 11
26.450486
 21
19.715260
 31
0.0
 11
26.454296
 21
19.650577
 31
0.0
 11
26.448079
 21
19.589545
 31
0.0
 11
26.429344
 21
19.542334
 31
0.0
 11
26.397966
 21
19.508985
 31
0.0
 11
26.359577
 21
19.486922
 31
0.0
 11
26.312370
 21
19.473638
 31
0.0
 11
26.256373
 21
19.469195
 31
0.0
 11
26.179600
 21
19.470461
 31
0.0
 11
26.085184
 21
19.474253
 31
0.0
 11
25.973186
 21
19.480565
 31
0.0
 11
25.852407
 21
19.488751
 31
0.0
 11
25.724071
 21
19.498252
 31
0.0
 11
25.588196
 21
19.508985
 31
0.0
 11
25.451663
 21
19.520342
 31
0.0
 11
25.313835
 21
19.531732
 31
0.0
 11
25.174785
 21
19.543095
 31
0.0
 11
25.040816
 21
19.556835
 31
0.0
 11
24.918175
 21
19.567979
 31
0.0
 11
24.806849
 21
19.576685
 31
0.0
  0
LWPOLYLINE
  5
108
100
AcDbEntity
  8
Calque_1
 62
7
100
AcDbPolyline
 90
1
 70
1
 10
25.463650
 20
21.105280
 30
0.0
  0
SPLINE
  5
109
100
AcDbEntity
  8
Calque_1
 62
7
100
AcDbSpline
 70
0
 71
3
 72
10
 73
6
 74
4
 40
0.000000
 40
0.000000
 40
0.000000
 40
0.000000
 40
0.014516
 40
0.027943
 40
0.040350
 40
0.040350
 40
0.040350
 40
0.040350
 10
24.806849
 20
19.576685
 30
0.0
 10
24.806730
 20
19.581523
 30
0.0
 10
24.806500
 20
19.590837
 30
0.0
 10
24.804697
 20
19.604219
 30
0.0
 10
24.802300
 20
19.612498
 30
0.0
 10
24.801149
 20
19.616475
 30
0.0
 11
24.806849
 21
19.576685
 31
0.0
 11
24.806216
 21
19.591188
 31
0.0
 11
24.804316
 21
19.604479
 31
0.0
 11
24.801149
 21
19.616475
 31
0.0
  0
LWPOLYLINE
  5
10a
100
AcDbEntity
  8
Calque_1
 62
7
100
AcDbPolyline
 90
2
 70
0
 10
24.801149
 20
19.616475
 30
0.0
 10
24.801149
 20
19.650585
 30
0.0
  0
SPLINE
  5
10b
100
AcDbEntity
  8
Calque_1
 62
7
100
AcDbSpline
 70
0
 71
3
 72
13
 73
9
 74
7
 40
0.000000
 40
0.000000
 40
0.000000
 40
0.000000
 40
0.102194
 40
0.191956
 40
0.273029
 40
0.351310
 40
0.431515
 40
0.522062
 40
0.522062
 40
0.522062
 40
0.522062
 10
24.801149
 20
19.650585
 30
0.0
 10
24.802367
 20
19.684728
 30
0.0
 10
24.804654
 20
19.748859
 30
0.0
 10
24.827825
 20
19.837475
 30
0.0
 10
24.864752
 20
19.913165
 30
0.0
 10
24.924616
 20
19.968652
 30
0.0
 10
25.002499
 20
20.002270
 30
0.0
 10
25.059690
 20
20.005462
 30
0.0
 10
25.090018
 20
20.007155
 30
0.0
 11
24.801149
 21
19.650585
 31
0.0
 11
24.808771
 21
19.752495
 31
0.0
 11
24.831551
 21
19.839317
 31
0.0
 11
24.869359
 21
19.911035
 31
0.0
 11
24.926566
 21
19.964471
 31
0.0
 11
25.000101
 21
19.996493
 31
0.0
 11
25.090018
 21
20.007155
 31
0.0
  0
SPLINE
  5
10c
100
AcDbEntity
  8
Calque_1
 62
7
100
AcDbSpline
 70
0
 71
3
 72
13
 73
9
 74
7
 40
0.000000
 40
0.000000
 40
0.000000
 40
0.000000
 40
0.203492
 40
0.405784
 40
0.606928
 40
0.806818
 40
1.005991
 40
1.204694
 40
1.204694
 40
1.204694
 40
1.204694
 10
21.522294
 20
21.071159
 30
0.0
 10
21.590014
 20
21.067277
 30
0.0
 10
21.725053
 20
21.059537
 30
0.0
 10
21.926959
 20
21.046684
 30
0.0
 10
22.127494
 20
21.031520
 30
0.0
 10
22.327173
 20
21.018757
 30
0.0
 10
22.525385
 20
20.997708
 30
0.0
 10
22.656661
 20
20.978794
 30
0.0
 10
22.722221
 20
20.969349
 30
0.0
 11
21.522294
 21
21.071159
 31
0.0
 11
21.725441
 21
21.059300
 31
0.0
 11
21.927311
 21
21.046258
 31
0.0
 11
22.127941
 21
21.031879
 31
0.0
 11
22.327302
 21
21.017345
 31
0.0
 11
22.525377
 21
20.996463
 31
0.0
 11
22.722221
 21
20.969349
 31
0.0
  0
SPLINE
  5
10d
100
AcDbEntity
  8
Calque_1
 62
7
100
AcDbSpline
 70
0
 71
3
 72
10
 73
6
 74
4
 40
0.000000
 40
0.000000
 40
0.000000
 40
0.000000
 40
0.423069
 40
0.844241
 40
1.263601
 40
1.263601
 40
1.263601
 40
1.263601
 10
22.722221
 20
20.969349
 30
0.0
 10
22.710280
 20
20.828831
 30
0.0
 10
22.686453
 20
20.548424
 30
0.0
 10
22.643060
 20
20.129431
 30
0.0
 10
22.608993
 20
19.851329
 30
0.0
 10
22.591996
 20
19.712578
 30
0.0
 11
22.722221
 21
20.969349
 31
0.0
 11
22.685102
 21
20.547911
 31
0.0
 11
22.641691
 21
20.128983
 31
0.0
 11
22.591996
 21
19.712578
 31
0.0
  0
SPLINE
  5
10e
100
AcDbEntity
  8
Calque_1
 62
7
100
AcDbSpline
 70
0
 71
3
 72
10
 73
6
 74
4
 40
0.000000
 40
0.000000
 40
0.000000
 40
0.000000
 40
0.418946
 40
0.839780
 40
1.262573
 40
1.262573
 40
1.262573
 40
1.262573
 10
22.591996
 20
19.712578
 30
0.0
 10
22.575144
 20
19.573949
 30
0.0
 10
22.541363
 20
19.296066
 30
0.0
 10
22.484935
 20
18.878990
 30
0.0
 10
22.443342
 20
18.600872
 30
0.0
 10
22.422497
 20
18.461490
 30
0.0
 11
22.591996
 21
19.712578
 31
0.0
 11
22.540505
 21
19.296808
 31
0.0
 11
22.484055
 21
18.879777
 31
0.0
 11
22.422497
 21
18.461490
 31
0.0
  0
SPLINE
  5
10f
100
AcDbEntity
  8
Calque_1
 62
7
100
AcDbSpline
 70
0
 71
3
 72
10
 73
6
 74
4
 40
0.000000
 40
0.000000
 40
0.000000
 40
0.000000
 40
0.281787
 40
0.561305
 40
0.838904
 40
0.838904
 40
0.838904
 40
0.838904
 10
22.422497
 20
18.461490
 30
0.0
 10
22.516427
 20
18.462374
 30
0.0
 10
22.703530
 20
18.464134
 30
0.0
 10
22.982945
 20
18.477389
 30
0.0
 10
23.167976
 20
18.493335
 30
0.0
 10
23.260172
 20
18.501280
 30
0.0
 11
22.422497
 21
18.461490
 31
0.0
 11
22.704249
 21
18.465933
 31
0.0
 11
22.983452
 21
18.479217
 31
0.0
 11
23.260172
 21
18.501280
 31
0.0
  0
SPLINE
  5
110
100
AcDbEntity
  8
Calque_1
 62
7
100
AcDbSpline
 70
0
 71
3
 72
10
 73
6
 74
4
 40
0.000000
 40
0.000000
 40
0.000000
 40
0.000000
 40
0.278571
 40
0.560062
 40
0.844585
 40
0.844585
 40
0.844585
 40
0.844585
 10
23.260172
 20
18.501280
 30
0.0
 10
23.352439
 20
18.511740
 30
0.0
 10
23.537939
 20
18.532770
 30
0.0
 10
23.817190
 20
18.568620
 30
0.0
 10
24.003961
 20
18.595337
 30
0.0
 10
24.097847
 20
18.608767
 30
0.0
 11
23.260172
 21
18.501280
 31
0.0
 11
23.536892
 21
18.533339
 31
0.0
 11
23.816095
 21
18.569157
 31
0.0
 11
24.097847
 21
18.608767
 31
0.0
  0
SPLINE
  5
111
100
AcDbEntity
  8
Calque_1
 62
7
100
AcDbSpline
 70
0
 71
3
 72
13
 73
9
 74
7
 40
0.000000
 40
0.000000
 40
0.000000
 40
0.000000
 40
0.134642
 40
0.266896
 40
0.396837
 40
0.523148
 40
0.652846
 40
0.786317
 40
0.786317
 40
0.786317
 40
0.786317
 10
24.097847
 20
18.608767
 30
0.0
 10
24.097471
 20
18.563886
 30
0.0
 10
24.096727
 20
18.474921
 30
0.0
 10
24.091114
 20
18.342721
 30
0.0
 10
24.080849
 20
18.213626
 30
0.0
 10
24.070910
 20
18.085330
 30
0.0
 10
24.051966
 20
17.956761
 30
0.0
 10
24.033720
 20
17.870944
 30
0.0
 10
24.024467
 20
17.827421
 30
0.0
 11
24.097847
 21
18.608767
 31
0.0
 11
24.095949
 21
18.474138
 31
0.0
 11
24.090262
 21
18.342007
 31
0.0
 11
24.080797
 21
18.212411
 31
0.0
 11
24.069571
 21
18.086600
 31
0.0
 11
24.050827
 21
17.958263
 31
0.0
 11
24.024467
 21
17.827421
 31
0.0
  0
SPLINE
  5
112
100
AcDbEntity
  8
Calque_1
 62
7
100
AcDbSpline
 70
0
 71
3
 72
13
 73
9
 74
7
 40
0.000000
 40
0.000000
 40
0.000000
 40
0.000000
 40
0.393173
 40
0.784761
 40
1.174747
 40
1.562536
 40
1.955182
 40
2.352833
 40
2.352833
 40
2.352833
 40
2.352833
 10
24.024467
 20
17.827421
 30
0.0
 10
23.893855
 20
17.816609
 30
0.0
 10
23.633156
 20
17.795030
 30
0.0
 10
23.242428
 20
17.768914
 30
0.0
 10
22.853207
 20
17.747787
 30
0.0
 10
22.463458
 20
17.730254
 30
0.0
 10
22.071060
 20
17.714861
 30
0.0
 10
21.807747
 20
17.706885
 30
0.0
 10
21.675257
 20
17.702871
 30
0.0
 11
24.024467
 21
17.827421
 31
0.0
 11
23.632550
 21
17.796024
 31
0.0
 11
23.241848
 21
17.769695
 31
0.0
 11
22.852446
 21
17.748351
 31
0.0
 11
22.465060
 21
17.730695
 31
0.0
 11
22.072707
 21
17.715507
 31
0.0
 11
21.675257
 21
17.702871
 31
0.0
  0
SPLINE
  5
113
100
AcDbEntity
  8
Calque_1
 62
7
100
AcDbSpline
 70
0
 71
3
 72
10
 73
6
 74
4
 40
0.000000
 40
0.000000
 40
0.000000
 40
0.000000
 40
0.557680
 40
1.112930
 40
1.665676
 40
1.665676
 40
1.665676
 40
1.665676
 10
21.675257
 20
17.702871
 30
0.0
 10
21.668832
 20
17.888653
 30
0.0
 10
21.656009
 20
18.259409
 30
0.0
 10
21.635099
 20
18.814241
 30
0.0
 10
21.620173
 20
19.183272
 30
0.0
 10
21.612727
 20
19.367370
 30
0.0
 11
21.675257
 21
17.702871
 31
0.0
 11
21.655692
 21
18.260208
 31
0.0
 11
21.634812
 21
18.815065
 31
0.0
 11
21.612727
 21
19.367370
 31
0.0
  0
LWPOLYLINE
  5
114
100
AcDbEntity
  8
Calque_1
 62
7
100
AcDbPolyline
 90
1
 70
1
 10
25.090018
 20
20.007155
 30
0.0
  0
SPLINE
  5
115
100
AcDbEntity
  8
Calque_1
 62
7
100
AcDbSpline
 70
0
 71
3
 72
10
 73
6
 74
4
 40
0.000000
 40
0.000000
 40
0.000000
 40
0.000000
 40
0.559588
 40
1.128283
 40
1.706257
 40
1.706257
 40
1.706257
 40
1.706257
 10
21.612727
 20
19.367370
 30
0.0
 10
21.605662
 20
19.553767
 30
0.0
 10
21.591415
 20
19.929595
 30
0.0
 10
21.561201
 20
20.497573
 30
0.0
 10
21.535335
 20
20.878923
 30
0.0
 10
21.522297
 20
21.071141
 30
0.0
 11
21.612727
 21
19.367370
 31
0.0
 11
21.590120
 21
19.926501
 31
0.0
 11
21.559997
 21
20.494397
 31
0.0
 11
21.522297
 21
21.071141
 31
0.0
  0
SPLINE
  5
116
100
AcDbEntity
  8
Calque_1
 62
7
100
AcDbSpline
 70
0
 71
3
 72
13
 73
9
 74
7
 40
0.000000
 40
0.000000
 40
0.000000
 40
0.000000
 40
0.256830
 40
0.498920
 40
0.726531
 40
0.944470
 40
1.165755
 40
1.390492
 40
1.390492
 40
1.390492
 40
1.390492
 10
29.981725
 20
21.009148
 30
0.0
 10
29.978641
 20
20.923591
 30
0.0
 10
29.972651
 20
20.757386
 30
0.0
 10
29.955822
 20
20.515723
 30
0.0
 10
29.931173
 20
20.287820
 30
0.0
 10
29.905772
 20
20.066990
 30
0.0
 10
29.873760
 20
19.847947
 30
0.0
 10
29.847618
 20
19.701583
 30
0.0
 10
29.834445
 20
19.627835
 30
0.0
 11
29.981725
 21
21.009148
 31
0.0
 11
29.970999
 21
20.752542
 31
0.0
 11
29.953904
 21
20.511057
 31
0.0
 11
29.930565
 21
20.284645
 31
0.0
 11
29.904805
 21
20.068234
 31
0.0
 11
29.872785
 21
19.849278
 31
0.0
 11
29.834445
 21
19.627835
 31
0.0
  0
SPLINE
  5
117
100
AcDbEntity
  8
Calque_1
 62
7
100
AcDbSpline
 70
0
 71
3
 72
67
 73
63
 74
61
 40
0.000000
 40
0.000000
 40
0.000000
 40
0.000000
 40
0.125713
 40
0.260227
 40
0.403490
 40
0.550817
 40
0.696820
 40
0.841413
 40
0.981303
 40
1.113405
 40
1.237939
 40
1.350113
 40
1.444606
 40
1.521389
 40
1.671343
 40
1.787796
 40
1.917002
 40
2.031395
 40
2.114249
 40
2.196112
 40
2.263388
 40
2.336947
 40
2.416861
 40
2.504634
 40
2.593680
 40
2.683963
 40
2.778601
 40
2.873189
 40
2.967679
 40
3.061007
 40
3.151706
 40
3.239799
 40
3.474461
 40
3.678148
 40
3.861011
 40
4.037265
 40
4.221603
 40
4.433050
 40
4.530470
 40
4.626704
 40
4.722061
 40
4.815968
 40
4.908513
 40
5.000928
 40
5.091250
 40
5.185013
 40
5.284262
 40
5.389231
 40
5.507506
 40
5.641704
 40
5.735378
 40
5.831327
 40
5.929504
 40
6.036627
 40
6.158322
 40
6.294759
 40
6.450523
 40
6.630101
 40
6.833469
 40
7.062441
 40
7.326519
 40
7.625868
 40
7.625868
 40
7.625868
 40
7.625868
 10
29.834445
 20
19.627835
 30
0.0
 10
29.792715
 20
19.631652
 30
0.0
 10
29.706333
 20
19.639553
 30
0.0
 10
29.572339
 20
19.651180
 30
0.0
 10
29.430975
 20
19.661173
 30
0.0
 10
29.286267
 20
19.676801
 30
0.0
 10
29.140834
 20
19.689387
 30
0.0
 10
28.997838
 20
19.701368
 30
0.0
 10
28.859335
 20
19.711353
 30
0.0
 10
28.727399
 20
19.719469
 30
0.0
 10
28.604480
 20
19.722974
 30
0.0
 10
28.494355
 20
19.730436
 30
0.0
 10
28.399820
 20
19.734003
 30
0.0
 10
28.293211
 20
19.736907
 30
0.0
 10
28.175775
 20
19.727860
 30
0.0
 10
28.064220
 20
19.638753
 30
0.0
 10
28.046545
 20
19.512871
 30
0.0
 10
28.055644
 20
19.404894
 30
0.0
 10
28.106802
 20
19.317700
 30
0.0
 10
28.188609
 20
19.302001
 30
0.0
 10
28.261846
 20
19.305998
 30
0.0
 10
28.335667
 20
19.307276
 30
0.0
 10
28.416006
 20
19.309733
 30
0.0
 10
28.501198
 20
19.318467
 30
0.0
 10
28.589929
 20
19.325640
 30
0.0
 10
28.680905
 20
19.333659
 30
0.0
 10
28.773837
 20
19.340315
 30
0.0
 10
28.868220
 20
19.346379
 30
0.0
 10
28.962322
 20
19.349554
 30
0.0
 10
29.054863
 20
19.357279
 30
0.0
 10
29.145529
 20
19.360703
 30
0.0
 10
29.283297
 20
19.363314
 30
0.0
 10
29.459237
 20
19.352248
 30
0.0
 10
29.661123
 20
19.298900
 30
0.0
 10
29.826814
 20
19.206196
 30
0.0
 10
29.953642
 20
19.071699
 30
0.0
 10
30.026014
 20
18.891069
 30
0.0
 10
30.040171
 20
18.725793
 30
0.0
 10
30.036706
 20
18.590854
 30
0.0
 10
30.031030
 20
18.494652
 30
0.0
 10
30.022192
 20
18.399884
 30
0.0
 10
30.006746
 20
18.307023
 30
0.0
 10
29.979824
 20
18.217867
 30
0.0
 10
29.944688
 20
18.132775
 30
0.0
 10
29.894726
 20
18.054741
 30
0.0
 10
29.831357
 20
17.984212
 30
0.0
 10
29.754669
 20
17.920645
 30
0.0
 10
29.663195
 20
17.863300
 30
0.0
 10
29.551940
 20
17.819182
 30
0.0
 10
29.440177
 20
17.789839
 30
0.0
 10
29.334122
 20
17.769691
 30
0.0
 10
29.239796
 20
17.752165
 30
0.0
 10
29.140520
 20
17.737026
 30
0.0
 10
29.033262
 20
17.717464
 30
0.0
 10
28.912301
 20
17.703102
 30
0.0
 10
28.774921
 20
17.690388
 30
0.0
 10
28.617982
 20
17.680077
 30
0.0
 10
28.438640
 20
17.670997
 30
0.0
 10
28.234819
 20
17.663018
 30
0.0
 10
28.002781
 20
17.656079
 30
0.0
 10
27.738704
 20
17.650456
 30
0.0
 10
27.550911
 20
17.647922
 30
0.0
 10
27.451137
 20
17.646576
 30
0.0
 11
29.834445
 21
19.627835
 31
0.0
 11
29.709246
 21
19.639192
 31
0.0
 11
29.575215
 21
19.650582
 31
0.0
 11
29.432403
 21
19.661945
 31
0.0
 11
29.285781
 21
19.676326
 31
0.0
 11
29.140360
 21
19.689361
 31
0.0
 11
28.996254
 21
19.701215
 31
0.0
 11
28.856727
 21
19.711288
 31
0.0
 11
28.724843
 21
19.718879
 31
0.0
 11
28.600412
 21
19.723945
 31
0.0
 11
28.488415
 21
19.730229
 31
0.0
 11
28.393999
 21
19.734041
 31
0.0
 11
28.317226
 21
19.735325
 31
0.0
 11
28.169394
 21
19.710191
 31
0.0
 11
28.080672
 21
19.634759
 31
0.0
 11
28.051092
 21
19.508985
 31
0.0
 11
28.066834
 21
19.395680
 31
0.0
 11
28.114041
 21
19.327590
 31
0.0
 11
28.192685
 21
19.304861
 31
0.0
 11
28.259958
 21
19.305494
 31
0.0
 11
28.333493
 21
19.307394
 31
0.0
 11
28.413344
 21
19.310561
 31
0.0
 11
28.500791
 21
19.318112
 31
0.0
 11
28.589513
 21
19.325714
 31
0.0
 11
28.679477
 21
19.333291
 31
0.0
 11
28.773863
 21
19.340201
 31
0.0
 11
28.868279
 21
19.345901
 31
0.0
 11
28.962664
 21
19.350351
 31
0.0
 11
29.055779
 21
19.356635
 31
0.0
 11
29.146399
 21
19.360447
 31
0.0
 11
29.234482
 21
19.361731
 31
0.0
 11
29.468431
 21
19.343449
 31
0.0
 11
29.664608
 21
19.288650
 31
0.0
 11
29.823077
 21
19.197401
 31
0.0
 11
29.942550
 21
19.067817
 31
0.0
 11
30.014186
 21
18.897968
 31
0.0
 11
30.038051
 21
18.687872
 31
0.0
 11
30.036153
 21
18.590471
 31
0.0
 11
30.030466
 21
18.494405
 31
0.0
 11
30.021001
 21
18.399519
 31
0.0
 11
30.004697
 21
18.307038
 31
0.0
 11
29.978371
 21
18.218316
 31
0.0
 11
29.941941
 21
18.133385
 31
0.0
 11
29.893444
 21
18.057187
 31
0.0
 11
29.831049
 21
17.987200
 31
0.0
 11
29.754873
 21
17.923578
 31
0.0
 11
29.665607
 21
17.868351
 31
0.0
 11
29.556252
 21
17.823289
 31
0.0
 11
29.426727
 21
17.788186
 31
0.0
 11
29.334856
 21
17.769893
 31
0.0
 11
29.240441
 21
17.752805
 31
0.0
 11
29.143540
 21
17.737026
 31
0.0
 11
29.037884
 21
17.719364
 31
0.0
 11
28.917140
 21
17.704175
 31
0.0
 11
28.781289
 21
17.691546
 31
0.0
 11
28.625885
 21
17.680959
 31
0.0
 11
28.446545
 21
17.671719
 31
0.0
 11
28.243337
 21
17.663646
 31
0.0
 11
28.014470
 21
17.656734
 31
0.0
 11
27.750453
 21
17.651028
 31
0.0
 11
27.451137
 21
17.646576
 31
0.0
  0
SPLINE
  5
118
100
AcDbEntity
  8
Calque_1
 62
7
100
AcDbSpline
 70
0
 71
3
 72
13
 73
9
 74
7
 40
0.000000
 40
0.000000
 40
0.000000
 40
0.000000
 40
0.145614
 40
0.287308
 40
0.425222
 40
0.563169
 40
0.704844
 40
0.850203
 40
0.850203
 40
0.850203
 40
0.850203
 10
27.451137
 20
17.646576
 30
0.0
 10
27.447492
 20
17.694977
 30
0.0
 10
27.440300
 20
17.790476
 30
0.0
 10
27.430875
 20
17.931904
 30
0.0
 10
27.422372
 20
18.070832
 30
0.0
 10
27.415954
 20
18.209869
 30
0.0
 10
27.412074
 20
18.351488
 30
0.0
 10
27.411591
 20
18.447167
 30
0.0
 10
27.411347
 20
18.495621
 30
0.0
 11
27.451137
 21
17.646576
 31
0.0
 11
27.440413
 21
17.791794
 31
0.0
 11
27.430921
 21
17.933170
 31
0.0
 11
27.422717
 21
18.070840
 31
0.0
 11
27.416436
 21
18.208644
 31
0.0
 11
27.412628
 21
18.350268
 31
0.0
 11
27.411347
 21
18.495621
 31
0.0
  0
SPLINE
  5
119
100
AcDbEntity
  8
Calque_1
 62
7
100
AcDbSpline
 70
0
 71
3
 72
49
 73
45
 74
43
 40
0.000000
 40
0.000000
 40
0.000000
 40
0.000000
 40
0.123615
 40
0.267451
 40
0.431402
 40
0.606328
 40
0.783684
 40
0.963638
 40
1.140547
 40
1.308659
 40
1.467974
 40
1.609002
 40
1.722416
 40
1.808058
 40
1.866839
 40
1.916958
 40
1.962603
 40
2.013897
 40
2.076692
 40
2.154948
 40
2.283465
 40
2.392860
 40
2.527309
 40
2.656187
 40
2.801371
 40
2.962986
 40
3.127300
 40
3.287918
 40
3.444654
 40
3.749438
 40
4.007325
 40
4.233946
 40
4.454154
 40
4.701337
 40
4.994466
 40
5.311757
 40
5.584513
 40
5.827674
 40
6.063968
 40
6.310571
 40
6.584243
 40
6.875600
 40
7.172892
 40
7.476163
 40
7.476163
 40
7.476163
 40
7.476163
 10
27.411347
 20
18.495621
 30
0.0
 10
27.452461
 20
18.492878
 30
0.0
 10
27.541414
 20
18.486943
 30
0.0
 10
27.684915
 20
18.477712
 30
0.0
 10
27.845406
 20
18.465914
 30
0.0
 10
28.017401
 20
18.459926
 30
0.0
 10
28.194627
 20
18.451890
 30
0.0
 10
28.372550
 20
18.444548
 30
0.0
 10
28.547385
 20
18.437131
 30
0.0
 10
28.715353
 20
18.430249
 30
0.0
 10
28.871282
 20
18.421485
 30
0.0
 10
29.009193
 20
18.419169
 30
0.0
 10
29.122559
 20
18.417569
 30
0.0
 10
29.208434
 20
18.415342
 30
0.0
 10
29.273449
 20
18.419183
 30
0.0
 10
29.323198
 20
18.435762
 30
0.0
 10
29.362258
 20
18.466802
 30
0.0
 10
29.391862
 20
18.512269
 30
0.0
 10
29.406894
 20
18.575562
 30
0.0
 10
29.412592
 20
18.664670
 30
0.0
 10
29.399443
 20
18.774702
 30
0.0
 10
29.301465
 20
18.866701
 30
0.0
 10
29.172876
 20
18.877305
 30
0.0
 10
29.037929
 20
18.873767
 30
0.0
 10
28.892344
 20
18.872687
 30
0.0
 10
28.735453
 20
18.869155
 30
0.0
 10
28.573280
 20
18.865756
 30
0.0
 10
28.412716
 20
18.864240
 30
0.0
 10
28.205451
 20
18.861682
 30
0.0
 10
27.964841
 20
18.875287
 30
0.0
 10
27.709221
 20
18.946827
 30
0.0
 10
27.504759
 20
19.071740
 30
0.0
 10
27.365287
 20
19.262983
 30
0.0
 10
27.288407
 20
19.507948
 30
0.0
 10
27.268363
 20
19.794579
 30
0.0
 10
27.288550
 20
20.089462
 30
0.0
 10
27.361318
 20
20.359939
 30
0.0
 10
27.490125
 20
20.579722
 30
0.0
 10
27.676139
 20
20.740317
 30
0.0
 10
27.907293
 20
20.848766
 30
0.0
 10
28.175620
 20
20.895362
 30
0.0
 10
28.461880
 20
20.918326
 30
0.0
 10
28.758141
 20
20.944232
 30
0.0
 10
28.957910
 20
20.957132
 30
0.0
 10
29.058789
 20
20.963647
 30
0.0
 11
27.411347
 21
18.495621
 31
0.0
 11
27.534691
 21
18.487437
 31
0.0
 11
27.678213
 21
18.477938
 31
0.0
 11
27.841812
 21
18.467201
 31
0.0
 11
28.016575
 21
18.459650
 31
0.0
 11
28.193768
 21
18.452048
 31
0.0
 11
28.373562
 21
18.444471
 31
0.0
 11
28.550316
 21
18.437050
 31
0.0
 11
28.718267
 21
18.429692
 31
0.0
 11
28.877408
 21
18.422251
 31
0.0
 11
29.018400
 21
18.419084
 31
0.0
 11
29.131798
 21
18.417184
 31
0.0
 11
29.217438
 21
18.416551
 31
0.0
 11
29.275954
 21
18.422131
 31
0.0
 11
29.323161
 21
18.438964
 31
0.0
 11
29.359032
 21
18.467191
 31
0.0
 11
29.387259
 21
18.510020
 31
0.0
 11
29.404092
 21
18.570516
 31
0.0
 11
29.409672
 21
18.648573
 31
0.0
 11
29.383268
 21
18.774348
 31
0.0
 11
29.304039
 21
18.849781
 31
0.0
 11
29.171960
 21
18.874916
 31
0.0
 11
29.043084
 21
18.874283
 31
0.0
 11
28.897913
 21
18.872383
 31
0.0
 11
28.736328
 21
18.869216
 31
0.0
 11
28.572045
 21
18.866049
 31
0.0
 11
28.411439
 21
18.864149
 31
0.0
 11
28.254703
 21
18.863516
 31
0.0
 11
27.950905
 21
18.888015
 31
0.0
 11
27.703725
 21
18.961550
 31
0.0
 11
27.513147
 21
19.084176
 31
0.0
 11
27.381070
 21
19.260378
 31
0.0
 11
27.301840
 21
19.494519
 31
0.0
 11
27.275435
 21
19.786457
 31
0.0
 11
27.300569
 21
20.102750
 31
0.0
 11
27.376002
 21
20.364868
 31
0.0
 11
27.501778
 21
20.572973
 31
0.0
 11
27.679202
 21
20.729036
 31
0.0
 11
27.901954
 21
20.834842
 31
0.0
 11
28.169954
 21
20.890267
 31
0.0
 11
28.459938
 21
20.918516
 31
0.0
 11
28.756225
 21
20.942945
 31
0.0
 11
29.058789
 21
20.963647
 31
0.0
  0
LWPOLYLINE
  5
11a
100
AcDbEntity
  8
Calque_1
 62
7
100
AcDbPolyline
 90
1
 70
1
 10
21.522297
 20
21.071141
 30
0.0
  0
SPLINE
  5
11b
100
AcDbEntity
  8
Calque_1
 62
7
100
AcDbSpline
 70
0
 71
3
 72
10
 73
6
 74
4
 40
0.000000
 40
0.000000
 40
0.000000
 40
0.000000
 40
0.309549
 40
0.617600
 40
0.924141
 40
0.924141
 40
0.924141
 40
0.924141
 10
29.058789
 20
20.963647
 30
0.0
 10
29.161732
 20
20.970699
 30
0.0
 10
29.367120
 20
20.984770
 30
0.0
 10
29.674817
 20
21.000005
 30
0.0
 10
29.879593
 20
21.006091
 30
0.0
 10
29.981730
 20
21.009127
 30
0.0
 11
29.058789
 21
20.963647
 31
0.0
 11
29.367680
 21
20.983827
 31
0.0
 11
29.675356
 21
20.999014
 31
0.0
 11
29.981730
 21
21.009127
 31
0.0
  0
SPLINE
  5
11c
100
AcDbEntity
  8
Calque_1
 62
7
100
AcDbSpline
 70
0
 71
3
 72
10
 73
6
 74
4
 40
0.000000
 40
0.000000
 40
0.000000
 40
0.000000
 40
0.536305
 40
1.065262
 40
1.587002
 40
1.587002
 40
1.587002
 40
1.587002
 10
16.984070
 20
21.264429
 30
0.0
 10
17.162635
 20
21.255864
 30
0.0
 10
17.517318
 20
21.238850
 30
0.0
 10
18.045204
 20
21.203855
 30
0.0
 10
18.394158
 20
21.173888
 30
0.0
 10
18.567436
 20
21.159008
 30
0.0
 11
16.984070
 21
21.264429
 31
0.0
 11
17.519678
 21
21.237091
 31
0.0
 11
18.047467
 21
21.201973
 31
0.0
 11
18.567436
 21
21.159008
 31
0.0
  0
SPLINE
  5
11d
100
AcDbEntity
  8
Calque_1
 62
7
100
AcDbSpline
 70
0
 71
3
 72
10
 73
6
 74
4
 40
0.000000
 40
0.000000
 40
0.000000
 40
0.000000
 40
0.529533
 40
1.060558
 40
1.593539
 40
1.593539
 40
1.593539
 40
1.593539
 10
18.567436
 20
21.159008
 30
0.0
 10
18.743454
 20
21.145722
 30
0.0
 10
19.095987
 20
21.119114
 30
0.0
 10
19.624079
 20
21.060532
 30
0.0
 10
19.975013
 20
21.009081
 30
0.0
 10
20.150802
 20
20.983309
 30
0.0
 11
18.567436
 21
21.159008
 31
0.0
 11
19.095225
 21
21.116065
 31
0.0
 11
19.623014
 21
21.057531
 31
0.0
 11
20.150802
 21
20.983309
 31
0.0
  0
SPLINE
  5
11e
100
AcDbEntity
  8
Calque_1
 62
7
100
AcDbSpline
 70
0
 71
3
 72
10
 73
6
 74
4
 40
0.000000
 40
0.000000
 40
0.000000
 40
0.000000
 40
1.064524
 40
2.125646
 40
3.183298
 40
3.183298
 40
3.183298
 40
3.183298
 10
20.150802
 20
20.983309
 30
0.0
 10
19.923809
 20
20.710568
 30
0.0
 10
19.470550
 20
20.165959
 30
0.0
 10
18.784535
 20
19.356417
 30
0.0
 10
18.322946
 20
18.821870
 30
0.0
 10
18.092530
 20
18.555035
 30
0.0
 11
20.150802
 21
20.983309
 31
0.0
 11
19.468614
 21
20.166100
 31
0.0
 11
18.782537
 21
19.356607
 31
0.0
 11
18.092530
 21
18.555035
 31
0.0
  0
SPLINE
  5
11f
100
AcDbEntity
  8
Calque_1
 62
7
100
AcDbSpline
 70
0
 71
3
 72
10
 73
6
 74
4
 40
0.000000
 40
0.000000
 40
0.000000
 40
0.000000
 40
1.044188
 40
2.098396
 40
3.163108
 40
3.163108
 40
3.163108
 40
3.163108
 10
18.092530
 20
18.555035
 30
0.0
 10
17.863394
 20
18.293027
 30
0.0
 10
17.402924
 20
17.766497
 30
0.0
 10
16.693129
 20
16.986702
 30
0.0
 10
16.207829
 20
16.473510
 30
0.0
 10
15.963976
 20
16.215642
 30
0.0
 11
18.092530
 21
18.555035
 31
0.0
 11
17.402546
 21
17.771294
 31
0.0
 11
16.693056
 21
16.991564
 31
0.0
 11
15.963976
 21
16.215642
 31
0.0
  0
SPLINE
  5
120
100
AcDbEntity
  8
Calque_1
 62
7
100
AcDbSpline
 70
0
 71
3
 72
10
 73
6
 74
4
 40
0.000000
 40
0.000000
 40
0.000000
 40
0.000000
 40
1.065337
 40
2.127569
 40
3.186947
 40
3.186947
 40
3.186947
 40
3.186947
 10
15.963976
 20
16.215642
 30
0.0
 10
16.160488
 20
15.919853
 30
0.0
 10
16.552938
 20
15.329138
 30
0.0
 10
17.156837
 20
14.455068
 30
0.0
 10
17.569633
 20
13.880830
 30
0.0
 10
17.775753
 20
13.594097
 30
0.0
 11
15.963976
 21
16.215642
 31
0.0
 11
16.556195
 21
15.330080
 31
0.0
 11
17.160078
 21
14.456201
 31
0.0
 11
17.775753
 21
13.594097
 31
0.0
  0
SPLINE
  5
121
100
AcDbEntity
  8
Calque_1
 62
7
100
AcDbSpline
 70
0
 71
3
 72
10
 73
6
 74
4
 40
0.000000
 40
0.000000
 40
0.000000
 40
0.000000
 40
1.047748
 40
2.093936
 40
3.138704
 40
3.138704
 40
3.138704
 40
3.138704
 10
17.775753
 20
13.594097
 30
0.0
 10
17.983682
 20
13.313487
 30
0.0
 10
18.399231
 20
12.752685
 30
0.0
 10
19.032690
 20
11.919968
 30
0.0
 10
19.461591
 20
11.370570
 30
0.0
 10
19.675896
 20
11.096058
 30
0.0
 11
17.775753
 21
13.594097
 31
0.0
 11
18.401307
 21
12.753587
 31
0.0
 11
19.034704
 21
11.920930
 31
0.0
 11
19.675896
 21
11.096058
 31
0.0
  0
SPLINE
  5
122
100
AcDbEntity
  8
Calque_1
 62
7
100
AcDbSpline
 70
0
 71
3
 72
10
 73
6
 74
4
 40
0.000000
 40
0.000000
 40
0.000000
 40
0.000000
 40
1.052367
 40
2.139859
 40
3.264382
 40
3.264382
 40
3.264382
 40
3.264382
 10
19.675896
 20
11.096058
 30
0.0
 10
19.333112
 20
11.021353
 30
0.0
 10
18.636103
 20
10.869450
 30
0.0
 10
17.561487
 20
10.694488
 30
0.0
 10
16.828886
 20
10.610582
 30
0.0
 10
16.456453
 20
10.567926
 30
0.0
 11
19.675896
 21
11.096058
 31
0.0
 11
18.645749
 21
10.880944
 31
0.0
 11
17.572610
 21
10.704848
 31
0.0
 11
16.456453
 21
10.567926
 31
0.0
  0
SPLINE
  5
123
100
AcDbEntity
  8
Calque_1
 62
7
100
AcDbSpline
 70
0
 71
3
 72
10
 73
6
 74
4
 40
0.000000
 40
0.000000
 40
0.000000
 40
0.000000
 40
0.736638
 40
1.474320
 40
2.213258
 40
2.213258
 40
2.213258
 40
2.213258
 10
16.456453
 20
10.567926
 30
0.0
 10
16.332480
 20
10.779883
 30
0.0
 10
16.084356
 20
11.204097
 30
0.0
 10
15.726488
 20
11.849342
 30
0.0
 10
15.497650
 20
12.285129
 30
0.0
 10
15.383134
 20
12.503207
 30
0.0
 11
16.456453
 21
10.567926
 31
0.0
 11
16.086963
 21
11.205195
 31
0.0
 11
15.729167
 21
11.850298
 31
0.0
 11
15.383134
 21
12.503207
 31
0.0
  0
SPLINE
  5
124
100
AcDbEntity
  8
Calque_1
 62
7
100
AcDbSpline
 70
0
 71
3
 72
10
 73
6
 74
4
 40
0.000000
 40
0.000000
 40
0.000000
 40
0.000000
 40
0.739565
 40
1.489846
 40
2.251163
 40
2.251163
 40
2.251163
 40
2.251163
 10
15.383134
 20
12.503207
 30
0.0
 10
15.274159
 20
12.724340
 30
0.0
 10
15.054631
 20
13.169811
 30
0.0
 10
14.738165
 20
13.850293
 30
0.0
 10
14.535429
 20
14.311581
 30
0.0
 10
14.433321
 20
14.543909
 30
0.0
 11
15.383134
 21
12.503207
 31
0.0
 11
15.058696
 21
13.167809
 31
0.0
 11
14.742121
 21
13.848032
 31
0.0
 11
14.433321
 21
14.543909
 31
0.0
  0
SPLINE
  5
125
100
AcDbEntity
  8
Calque_1
 62
7
100
AcDbSpline
 70
0
 71
3
 72
13
 73
9
 74
7
 40
0.000000
 40
0.000000
 40
0.000000
 40
0.000000
 40
0.401219
 40
0.804785
 40
1.211442
 40
1.624946
 40
2.048710
 40
2.482991
 40
2.482991
 40
2.482991
 40
2.482991
 10
14.433321
 20
14.543909
 30
0.0
 10
14.320559
 20
14.471963
 30
0.0
 10
14.094375
 20
14.327649
 30
0.0
 10
13.765996
 20
14.092301
 30
0.0
 10
13.444443
 20
13.841162
 30
0.0
 10
13.127509
 20
13.573704
 30
0.0
 10
12.810441
 20
13.292325
 30
0.0
 10
12.603020
 20
13.095369
 30
0.0
 10
12.498039
 20
12.995684
 30
0.0
 11
14.433321
 21
14.543909
 31
0.0
 11
14.097032
 21
14.325079
 31
0.0
 11
13.768503
 21
14.090700
 31
0.0
 11
13.447852
 21
13.840594
 31
0.0
 11
13.131232
 21
13.574628
 31
0.0
 11
12.814658
 21
13.292925
 31
0.0
 11
12.498039
 21
12.995684
 31
0.0
  0
SPLINE
  5
126
100
AcDbEntity
  8
Calque_1
 62
7
100
AcDbSpline
 70
0
 71
3
 72
13
 73
9
 74
7
 40
0.000000
 40
0.000000
 40
0.000000
 40
0.000000
 40
0.400913
 40
0.782592
 40
1.145453
 40
1.481637
 40
1.806219
 40
2.119083
 40
2.119083
 40
2.119083
 40
2.119083
 10
12.498039
 20
12.995684
 30
0.0
 10
12.502622
 20
12.862120
 30
0.0
 10
12.511569
 20
12.601400
 30
0.0
 10
12.535060
 20
12.220254
 30
0.0
 10
12.566171
 20
11.861322
 30
0.0
 10
12.603135
 20
11.522113
 30
0.0
 10
12.637808
 20
11.199428
 30
0.0
 10
12.661909
 20
10.988316
 30
0.0
 10
12.673739
 20
10.884701
 30
0.0
 11
12.498039
 21
12.995684
 31
0.0
 11
12.513653
 21
12.595075
 31
0.0
 11
12.537066
 21
12.214115
 31
0.0
 11
12.568319
 21
11.852602
 31
0.0
 11
12.603468
 21
11.518261
 31
0.0
 11
12.638588
 21
11.195584
 31
0.0
 11
12.673739
 21
10.884701
 31
0.0
  0
SPLINE
  5
127
100
AcDbEntity
  8
Calque_1
 62
7
100
AcDbSpline
 70
0
 71
3
 72
13
 73
9
 74
7
 40
0.000000
 40
0.000000
 40
0.000000
 40
0.000000
 40
0.265862
 40
0.523970
 40
0.774378
 40
1.013254
 40
1.260452
 40
1.516371
 40
1.516371
 40
1.516371
 40
1.516371
 10
12.673739
 20
10.884701
 30
0.0
 10
12.585117
 20
10.885049
 30
0.0
 10
12.410457
 20
10.885735
 30
0.0
 10
12.152394
 20
10.891889
 30
0.0
 10
11.903406
 20
10.900878
 30
0.0
 10
11.658405
 20
10.916944
 30
0.0
 10
11.412120
 20
10.940197
 30
0.0
 10
11.245781
 20
10.961643
 30
0.0
 10
11.161170
 20
10.972551
 30
0.0
 11
12.673739
 21
10.884701
 31
0.0
 11
12.407884
 21
10.886641
 31
0.0
 11
12.149842
 21
10.892485
 31
0.0
 11
11.899626
 21
10.902271
 31
0.0
 11
11.661260
 21
10.917881
 31
0.0
 11
11.415174
 21
10.941295
 31
0.0
 11
11.161170
 21
10.972551
 31
0.0
  0
SPLINE
  5
128
100
AcDbEntity
  8
Calque_1
 62
7
100
AcDbSpline
 70
0
 71
3
 72
10
 73
6
 74
4
 40
0.000000
 40
0.000000
 40
0.000000
 40
0.000000
 40
1.665122
 40
3.316534
 40
4.954196
 40
4.954196
 40
4.954196
 40
4.954196
 10
11.161170
 20
10.972551
 30
0.0
 10
11.080749
 20
11.521737
 30
0.0
 10
10.920570
 20
12.615586
 30
0.0
 10
10.697521
 20
14.251892
 30
0.0
 10
10.560634
 20
15.339675
 30
0.0
 10
10.492477
 20
15.881293
 30
0.0
 11
11.161170
 21
10.972551
 31
0.0
 11
10.922646
 21
12.620501
 31
0.0
 11
10.699724
 21
14.256797
 31
0.0
 11
10.492477
 21
15.881293
 31
0.0
  0
SPLINE
  5
129
100
AcDbEntity
  8
Calque_1
 62
7
100
AcDbSpline
 70
0
 71
3
 72
10
 73
6
 74
4
 40
0.000000
 40
0.000000
 40
0.000000
 40
0.000000
 40
1.642054
 40
3.286316
 40
4.933027
 40
4.933027
 40
4.933027
 40
4.933027
 10
10.492477
 20
15.881293
 30
0.0
 10
10.431481
 20
16.425238
 30
0.0
 10
10.309407
 20
17.513859
 30
0.0
 10
10.145290
 20
19.150043
 30
0.0
 10
10.048454
 20
20.242756
 30
0.0
 10
10.000000
 20
20.789520
 30
0.0
 11
10.492477
 21
15.881293
 31
0.0
 11
10.312670
 21
17.513473
 31
0.0
 11
10.148530
 21
19.149521
 31
0.0
 11
10.000000
 21
20.789520
 31
0.0
  0
SPLINE
  5
12a
100
AcDbEntity
  8
Calque_1
 62
7
100
AcDbSpline
 70
0
 71
3
 72
10
 73
6
 74
4
 40
0.000000
 40
0.000000
 40
0.000000
 40
0.000000
 40
0.527840
 40
1.046605
 40
1.556508
 40
1.556508
 40
1.556508
 40
1.556508
 10
10.000000
 20
20.789520
 30
0.0
 10
10.174544
 20
20.811725
 30
0.0
 10
10.520630
 20
20.855753
 30
0.0
 10
11.036845
 20
20.908592
 30
0.0
 10
11.378747
 20
20.934706
 30
0.0
 10
11.548226
 20
20.947651
 30
0.0
 11
10.000000
 21
20.789520
 31
0.0
 11
10.523890
 21
20.853973
 31
0.0
 11
11.039974
 21
20.906653
 31
0.0
 11
11.548226
 21
20.947651
 31
0.0
  0
LWPOLYLINE
  5
12b
100
AcDbEntity
  8
Calque_1
 62
7
100
AcDbPolyline
 90
1
 70
1
 10
29.981730
 20
21.009127
 30
0.0
  0
SPLINE
  5
12c
100
AcDbEntity
  8
Calque_1
 62
7
100
AcDbSpline
 70
0
 71
3
 72
10
 73
6
 74
4
 40
0.000000
 40
0.000000
 40
0.000000
 40
0.000000
 40
0.507685
 40
1.018215
 40
1.532265
 40
1.532265
 40
1.532265
 40
1.532265
 10
11.548226
 20
20.947651
 30
0.0
 10
11.716874
 20
20.961761
 30
0.0
 10
12.055114
 20
20.990060
 30
0.0
 10
12.565484
 20
21.013712
 30
0.0
 10
12.907014
 20
21.016861
 30
0.0
 10
13.078365
 20
21.018441
 30
0.0
 11
11.548226
 21
20.947651
 31
0.0
 11
12.054395
 21
20.986853
 31
0.0
 11
12.564376
 21
21.010512
 31
0.0
 11
13.078365
 21
21.018441
 31
0.0
  0
SPLINE
  5
12d
100
AcDbEntity
  8
Calque_1
 62
7
100
AcDbSpline
 70
0
 71
3
 72
10
 73
6
 74
4
 40
0.000000
 40
0.000000
 40
0.000000
 40
0.000000
 40
0.117317
 40
0.234777
 40
0.352486
 40
0.352486
 40
0.352486
 40
0.352486
 10
13.395142
 20
21.018441
 30
0.0
 10
13.434248
 20
21.018054
 30
0.0
 10
13.512507
 20
21.017279
 30
0.0
 10
13.629901
 20
21.011438
 30
0.0
 10
13.707978
 20
21.004396
 30
0.0
 10
13.747058
 20
21.000871
 30
0.0
 11
13.395142
 21
21.018441
 31
0.0
 11
13.512443
 21
21.016501
 31
0.0
 11
13.629757
 21
21.010657
 31
0.0
 11
13.747058
 21
21.000871
 31
0.0
  0
SPLINE
  5
12e
100
AcDbEntity
  8
Calque_1
 62
7
100
AcDbSpline
 70
0
 71
3
 72
13
 73
9
 74
7
 40
0.000000
 40
0.000000
 40
0.000000
 40
0.000000
 40
0.759083
 40
1.486593
 40
2.182583
 40
2.940988
 40
3.668249
 40
4.364697
 40
4.364697
 40
4.364697
 40
4.364697
 10
13.747058
 20
21.000871
 30
0.0
 10
13.736523
 20
20.748059
 30
0.0
 10
13.715892
 20
20.252950
 30
0.0
 10
13.698557
 20
19.525589
 30
0.0
 10
13.692305
 20
18.798285
 30
0.0
 10
13.698264
 20
18.071067
 30
0.0
 10
13.714625
 20
17.343823
 30
0.0
 10
13.736404
 20
16.869740
 30
0.0
 10
13.747058
 20
16.637828
 30
0.0
 11
13.747058
 21
21.000871
 31
0.0
 11
13.717754
 21
20.242354
 31
0.0
 11
13.700195
 21
19.515055
 31
0.0
 11
13.694348
 21
18.819090
 31
0.0
 11
13.700194
 21
18.060708
 31
0.0
 11
13.717754
 21
17.333659
 31
0.0
 11
13.747058
 21
16.637828
 31
0.0
  0
SPLINE
  5
12f
100
AcDbEntity
  8
Calque_1
 62
7
100
AcDbSpline
 70
0
 71
3
 72
10
 73
6
 74
4
 40
0.000000
 40
0.000000
 40
0.000000
 40
0.000000
 40
0.926150
 40
1.854930
 40
2.786998
 40
2.786998
 40
2.786998
 40
2.786998
 10
13.747058
 20
16.637828
 30
0.0
 10
13.941062
 20
16.877983
 30
0.0
 10
14.329619
 20
17.358975
 30
0.0
 10
14.892724
 20
18.098078
 30
0.0
 10
15.254591
 20
18.601888
 30
0.0
 10
15.435844
 20
18.854239
 30
0.0
 11
13.747058
 21
16.637828
 31
0.0
 11
14.325634
 21
17.361018
 31
0.0
 11
14.888544
 21
18.099776
 31
0.0
 11
15.435844
 21
18.854239
 31
0.0
  0
LWPOLYLINE
  5
130
100
AcDbEntity
  8
Calque_1
 62
7
100
AcDbPolyline
 90
2
 70
0
 10
13.078365
 20
21.018441
 30
0.0
 10
13.395142
 20
21.018441
 30
0.0
  0
SPLINE
  5
131
100
AcDbEntity
  8
Calque_1
 62
7
100
AcDbSpline
 70
0
 71
3
 72
10
 73
6
 74
4
 40
0.000000
 40
0.000000
 40
0.000000
 40
0.000000
 40
0.947173
 40
1.902044
 40
2.865202
 40
2.865202
 40
2.865202
 40
2.865202
 10
15.435844
 20
18.854239
 30
0.0
 10
15.614396
 20
19.114639
 30
0.0
 10
15.972951
 20
19.637555
 30
0.0
 10
16.489098
 20
20.441371
 30
0.0
 10
16.818605
 20
20.989285
 30
0.0
 10
16.984070
 20
21.264426
 30
0.0
 11
15.435844
 21
18.854239
 31
0.0
 11
15.967553
 21
19.638090
 31
0.0
 11
16.483636
 21
20.441480
 31
0.0
 11
16.984070
 21
21.264426
 31
0.0
  0
SPLINE
  5
132
100
AcDbEntity
  8
Calque_1
 62
7
100
AcDbSpline
 70
0
 71
3
 72
13
 73
9
 74
7
 40
0.000000
 40
0.000000
 40
0.000000
 40
0.000000
 40
0.969564
 40
1.935225
 40
2.897345
 40
3.858804
 40
4.822285
 40
5.787897
 40
5.787897
 40
5.787897
 40
5.787897
 10
35.720910
 20
16.445086
 30
0.0
 10
35.689818
 20
16.123388
 30
0.0
 10
35.627759
 20
15.481287
 30
0.0
 10
35.557820
 20
14.517946
 30
0.0
 10
35.506571
 20
13.556186
 30
0.0
 10
35.470228
 20
12.594500
 30
0.0
 10
35.441464
 20
11.631393
 30
0.0
 10
35.430363
 20
10.988452
 30
0.0
 10
35.424807
 20
10.666626
 30
0.0
 11
35.720910
 21
16.445086
 31
0.0
 11
35.631485
 21
15.479655
 31
0.0
 11
35.560831
 21
14.516582
 31
0.0
 11
35.509037
 21
13.555857
 31
0.0
 11
35.471520
 21
12.595131
 31
0.0
 11
35.443505
 21
11.632057
 31
0.0
 11
35.424807
 21
10.666626
 31
0.0
  0
SPLINE
  5
133
100
AcDbEntity
  8
Calque_1
 62
7
100
AcDbSpline
 70
0
 71
3
 72
19
 73
15
 74
13
 40
0.000000
 40
0.000000
 40
0.000000
 40
0.000000
 40
0.628967
 40
1.258642
 40
1.889245
 40
2.521701
 40
3.157391
 40
3.797129
 40
4.059848
 40
4.301238
 40
4.527195
 40
4.752477
 40
4.970696
 40
5.186271
 40
5.186271
 40
5.186271
 40
5.186271
 10
35.424807
 20
10.666626
 30
0.0
 10
35.632042
 20
10.634812
 30
0.0
 10
36.046744
 20
10.571147
 30
0.0
 10
36.671417
 20
10.490908
 30
0.0
 10
37.298404
 20
10.420486
 30
0.0
 10
37.929122
 20
10.365974
 30
0.0
 10
38.564523
 20
10.337153
 30
0.0
 10
39.077012
 20
10.321079
 30
0.0
 10
39.458738
 20
10.336899
 30
0.0
 10
39.698245
 20
10.386047
 30
0.0
 10
39.914883
 20
10.469572
 30
0.0
 10
40.105200
 20
10.587523
 30
0.0
 10
40.278228
 20
10.724553
 30
0.0
 10
40.372834
 20
10.834300
 30
0.0
 10
40.419849
 20
10.888839
 30
0.0
 11
35.424807
 21
10.666626
 31
0.0
 11
36.046876
 21
10.573732
 31
0.0
 11
36.671303
 21
10.492604
 31
0.0
 11
37.298078
 21
10.423230
 31
0.0
 11
37.928320
 21
10.370357
 31
0.0
 11
38.563221
 21
10.338689
 31
0.0
 11
39.202872
 21
10.328150
 31
0.0
 11
39.465082
 21
10.344517
 31
0.0
 11
39.701402
 21
10.393727
 31
0.0
 11
39.911870
 21
10.475944
 31
0.0
 11
40.104719
 21
10.592398
 31
0.0
 11
40.274044
 21
10.730051
 31
0.0
 11
40.419849
 21
10.888839
 31
0.0
  0
SPLINE
  5
134
100
AcDbEntity
  8
Calque_1
 62
7
100
AcDbSpline
 70
0
 71
3
 72
10
 73
6
 74
4
 40
0.000000
 40
0.000000
 40
0.000000
 40
0.000000
 40
0.219066
 40
0.438554
 40
0.662572
 40
0.662572
 40
0.662572
 40
0.662572
 10
40.419849
 20
10.888839
 30
0.0
 10
40.464290
 20
10.946886
 30
0.0
 10
40.553257
 20
11.063092
 30
0.0
 10
40.656580
 20
11.259873
 30
0.0
 10
40.703240
 20
11.400301
 30
0.0
 10
40.726808
 20
11.471232
 30
0.0
 11
40.419849
 21
10.888839
 31
0.0
 11
40.548037
 21
11.066484
 31
0.0
 11
40.650362
 21
11.260661
 31
0.0
 11
40.726808
 21
11.471232
 31
0.0
  0
SPLINE
  5
135
100
AcDbEntity
  8
Calque_1
 62
7
100
AcDbSpline
 70
0
 71
3
 72
13
 73
9
 74
7
 40
0.000000
 40
0.000000
 40
0.000000
 40
0.000000
 40
0.227600
 40
0.452581
 40
0.677459
 40
0.946051
 40
1.177761
 40
1.381207
 40
1.381207
 40
1.381207
 40
1.381207
 10
40.726808
 20
11.471232
 30
0.0
 10
40.748036
 20
11.544139
 30
0.0
 10
40.790249
 20
11.689115
 30
0.0
 10
40.824672
 20
11.912901
 30
0.0
 10
40.837444
 20
12.152487
 30
0.0
 10
40.822583
 20
12.393950
 30
0.0
 10
40.775493
 20
12.626526
 30
0.0
 10
40.706400
 20
12.754832
 30
0.0
 10
40.674098
 20
12.814818
 30
0.0
 11
40.726808
 21
11.471232
 31
0.0
 11
40.785633
 21
11.691099
 31
0.0
 11
40.820960
 21
11.913289
 31
0.0
 11
40.832745
 21
12.137858
 31
0.0
 11
40.815134
 21
12.405872
 31
0.0
 11
40.762267
 21
12.631470
 31
0.0
 11
40.674098
 21
12.814818
 31
0.0
  0
SPLINE
  5
136
100
AcDbEntity
  8
Calque_1
 62
7
100
AcDbSpline
 70
0
 71
3
 72
10
 73
6
 74
4
 40
0.000000
 40
0.000000
 40
0.000000
 40
0.000000
 40
0.189847
 40
0.384774
 40
0.591368
 40
0.591368
 40
0.591368
 40
0.591368
 10
40.674098
 20
12.814818
 30
0.0
 10
40.637986
 20
12.866977
 30
0.0
 10
40.564796
 20
12.972691
 30
0.0
 10
40.415867
 20
13.105176
 30
0.0
 10
40.299758
 20
13.172094
 30
0.0
 10
40.240017
 20
13.206526
 30
0.0
 11
40.674098
 21
12.814818
 31
0.0
 11
40.559990
 21
12.966545
 31
0.0
 11
40.415272
 21
13.097133
 31
0.0
 11
40.240017
 21
13.206526
 31
0.0
  0
SPLINE
  5
137
100
AcDbEntity
  8
Calque_1
 62
7
100
AcDbSpline
 70
0
 71
3
 72
16
 73
12
 74
10
 40
0.000000
 40
0.000000
 40
0.000000
 40
0.000000
 40
0.254473
 40
0.516805
 40
0.799420
 40
1.116313
 40
1.467825
 40
1.861153
 40
2.245895
 40
2.578399
 40
2.879133
 40
2.879133
 40
2.879133
 40
2.879133
 10
40.240017
 20
13.206526
 30
0.0
 10
40.312401
 20
13.251529
 30
0.0
 10
40.459403
 20
13.342924
 30
0.0
 10
40.636801
 20
13.546261
 30
0.0
 10
40.783148
 20
13.794972
 30
0.0
 10
40.886508
 20
14.096818
 30
0.0
 10
40.947623
 20
14.446305
 30
0.0
 10
40.967964
 20
14.823378
 30
0.0
 10
40.941886
 20
15.193116
 30
0.0
 10
40.849955
 20
15.526520
 30
0.0
 10
40.723366
 20
15.697339
 30
0.0
 10
40.663247
 20
15.778463
 30
0.0
 11
40.240017
 21
13.206526
 31
0.0
 11
40.449332
 21
13.351246
 31
0.0
 11
40.625721
 21
13.545424
 31
0.0
 11
40.769184
 21
13.788918
 31
0.0
 11
40.875065
 21
14.087600
 31
0.0
 11
40.938654
 21
14.433312
 31
0.0
 11
40.959869
 21
14.826067
 31
0.0
 11
40.926868
 21
15.209391
 31
0.0
 11
40.827950
 21
15.526841
 31
0.0
 11
40.663247
 21
15.778463
 31
0.0
  0
SPLINE
  5
138
100
AcDbEntity
  8
Calque_1
 62
7
100
AcDbSpline
 70
0
 71
3
 72
13
 73
9
 74
7
 40
0.000000
 40
0.000000
 40
0.000000
 40
0.000000
 40
0.307572
 40
0.653987
 40
1.062774
 40
1.545099
 40
2.100230
 40
2.728070
 40
2.728070
 40
2.728070
 40
2.728070
 10
40.663247
 20
15.778463
 30
0.0
 10
40.587220
 20
15.848489
 30
0.0
 10
40.425563
 20
15.997384
 30
0.0
 10
40.085419
 20
16.121672
 30
0.0
 10
39.676758
 20
16.178654
 30
0.0
 10
39.195114
 20
16.205916
 30
0.0
 10
38.641368
 20
16.243234
 30
0.0
 10
38.247590
 20
16.264371
 30
0.0
 10
38.038599
 20
16.275589
 30
0.0
 11
40.663247
 21
15.778463
 31
0.0
 11
40.424624
 21
15.972523
 31
0.0
 11
40.103765
 21
16.103112
 31
0.0
 11
39.700516
 21
16.170168
 31
0.0
 11
39.219475
 21
16.205341
 31
0.0
 11
38.665454
 21
16.240422
 31
0.0
 11
38.038599
 21
16.275589
 31
0.0
  0
LWPOLYLINE
  5
139
100
AcDbEntity
  8
Calque_1
 62
7
100
AcDbPolyline
 90
1
 70
1
 10
16.984070
 20
21.264426
 30
0.0
  0
SPLINE
  5
13a
100
AcDbEntity
  8
Calque_1
 62
7
100
AcDbSpline
 70
0
 71
3
 72
10
 73
6
 74
4
 40
0.000000
 40
0.000000
 40
0.000000
 40
0.000000
 40
0.701239
 40
1.475858
 40
2.323897
 40
2.323897
 40
2.323897
 40
2.323897
 10
38.038599
 20
16.275589
 30
0.0
 10
37.805361
 20
16.291003
 30
0.0
 10
37.314478
 20
16.323444
 30
0.0
 10
36.541931
 20
16.380357
 30
0.0
 10
36.002718
 20
16.422871
 30
0.0
 10
35.720913
 20
16.445089
 30
0.0
 11
38.038599
 21
16.275589
 31
0.0
 11
37.338943
 21
16.322667
 31
0.0
 11
36.566388
 21
16.379191
 31
0.0
 11
35.720913
 21
16.445089
 31
0.0
  0
SPLINE
  5
13b
100
AcDbEntity
  8
Calque_1
 62
7
100
AcDbSpline
 70
0
 71
3
 72
10
 73
6
 74
4
 40
0.000000
 40
0.000000
 40
0.000000
 40
0.000000
 40
0.398889
 40
0.805171
 40
1.218771
 40
1.218771
 40
1.218771
 40
1.218771
 10
37.181285
 20
14.275709
 30
0.0
 10
37.314214
 20
14.272604
 30
0.0
 10
37.582536
 20
14.266337
 30
0.0
 10
37.988435
 20
14.248413
 30
0.0
 10
38.261188
 20
14.231175
 30
0.0
 10
38.398781
 20
14.222479
 30
0.0
 11
37.181285
 21
14.275709
 31
0.0
 11
37.580031
 21
14.265026
 31
0.0
 11
37.985924
 21
14.247248
 31
0.0
 11
38.398781
 21
14.222479
 31
0.0
  0
SPLINE
  5
13c
100
AcDbEntity
  8
Calque_1
 62
7
100
AcDbSpline
 70
0
 71
3
 72
22
 73
18
 74
16
 40
0.000000
 40
0.000000
 40
0.000000
 40
0.000000
 40
0.407364
 40
0.781899
 40
1.123866
 40
1.258167
 40
1.368761
 40
1.467083
 40
1.558042
 40
1.649604
 40
1.745207
 40
1.975619
 40
2.191548
 40
2.477274
 40
2.858361
 40
3.239990
 40
3.622642
 40
3.622642
 40
3.622642
 40
3.622642
 10
38.398781
 20
14.222479
 30
0.0
 10
38.534399
 20
14.215567
 30
0.0
 10
38.794706
 20
14.202300
 30
0.0
 10
39.168324
 20
14.174964
 30
0.0
 10
39.451640
 20
14.160372
 30
0.0
 10
39.645553
 20
14.130633
 30
0.0
 10
39.752211
 20
14.081733
 30
0.0
 10
39.818925
 20
14.004311
 30
0.0
 10
39.860625
 20
13.920020
 30
0.0
 10
39.885718
 20
13.829964
 30
0.0
 10
39.896792
 20
13.691604
 30
0.0
 10
39.862196
 20
13.500653
 30
0.0
 10
39.649124
 20
13.345743
 30
0.0
 10
39.349298
 20
13.327833
 30
0.0
 10
39.001918
 20
13.339729
 30
0.0
 10
38.619942
 20
13.358678
 30
0.0
 10
38.366510
 20
13.384349
 30
0.0
 10
38.239624
 20
13.397201
 30
0.0
 11
38.398781
 21
14.222479
 31
0.0
 11
38.805534
 21
14.200182
 31
0.0
 11
39.179260
 21
14.175576
 31
0.0
 11
39.520160
 21
14.148579
 31
0.0
 11
39.651939
 21
14.122670
 31
0.0
 11
39.750856
 21
14.073210
 31
0.0
 11
39.816784
 21
14.000267
 31
0.0
 11
39.857894
 21
13.919129
 31
0.0
 11
39.882500
 21
13.830934
 31
0.0
 11
39.890684
 21
13.735683
 31
0.0
 11
39.834245
 21
13.512290
 31
0.0
 11
39.664922
 21
13.378294
 31
0.0
 11
39.382706
 21
13.333641
 31
0.0
 11
39.001685
 21
13.340713
 31
0.0
 11
38.620645
 21
13.361909
 31
0.0
 11
38.239624
 21
13.397201
 31
0.0
  0
SPLINE
  5
13d
100
AcDbEntity
  8
Calque_1
 62
7
100
AcDbSpline
 70
0
 71
3
 72
10
 73
6
 74
4
 40
0.000000
 40
0.000000
 40
0.000000
 40
0.000000
 40
0.382681
 40
0.762438
 40
1.139397
 40
1.139397
 40
1.139397
 40
1.139397
 10
38.239624
 20
13.397201
 30
0.0
 10
38.113067
 20
13.413177
 30
0.0
 10
37.860921
 20
13.445006
 30
0.0
 10
37.483485
 20
13.487463
 30
0.0
 10
37.232447
 20
13.512067
 30
0.0
 10
37.107392
 20
13.524323
 30
0.0
 11
38.239624
 21
13.397201
 31
0.0
 11
37.859848
 21
13.444267
 31
0.0
 11
37.482465
 21
13.486662
 31
0.0
 11
37.107392
 21
13.524323
 31
0.0
  0
LWPOLYLINE
  5
13e
100
AcDbEntity
  8
Calque_1
 62
7
100
AcDbPolyline
 90
1
 70
1
 10
35.720913
 20
16.445089
 30
0.0
  0
SPLINE
  5
13f
100
AcDbEntity
  8
Calque_1
 62
7
100
AcDbSpline
 70
0
 71
3
 72
13
 73
9
 74
7
 40
0.000000
 40
0.000000
 40
0.000000
 40
0.000000
 40
0.146357
 40
0.287806
 40
0.424430
 40
0.555738
 40
0.666038
 40
0.755370
 40
0.755370
 40
0.755370
 40
0.755370
 10
37.107392
 20
13.524323
 30
0.0
 10
37.111773
 20
13.572912
 30
0.0
 10
37.120388
 20
13.668459
 30
0.0
 10
37.131558
 20
13.809501
 30
0.0
 10
37.136942
 20
13.945936
 30
0.0
 10
37.152232
 20
14.071150
 30
0.0
 10
37.165414
 20
14.180681
 30
0.0
 10
37.176377
 20
14.246325
 30
0.0
 10
37.181282
 20
14.275700
 30
0.0
 11
37.107392
 21
13.524323
 31
0.0
 11
37.120266
 21
13.670112
 31
0.0
 11
37.130738
 21
13.811174
 31
0.0
 11
37.138912
 21
13.947553
 31
0.0
 11
37.153039
 21
14.078098
 31
0.0
 11
37.167168
 21
14.187490
 31
0.0
 11
37.181282
 21
14.275700
 31
0.0
  0
SPLINE
  5
140
100
AcDbEntity
  8
Calque_1
 62
7
100
AcDbSpline
 70
0
 71
3
 72
34
 73
30
 74
28
 40
0.000000
 40
0.000000
 40
0.000000
 40
0.000000
 40
0.494732
 40
0.975501
 40
1.442384
 40
1.914030
 40
2.395019
 40
2.885429
 40
2.962521
 40
3.029170
 40
3.095103
 40
3.168262
 40
3.244375
 40
3.325714
 40
3.425002
 40
3.514374
 40
3.599239
 40
3.676522
 40
3.753723
 40
3.838965
 40
3.882477
 40
3.956618
 40
4.061428
 40
4.189841
 40
4.334732
 40
4.496032
 40
4.665518
 40
4.849107
 40
5.046794
 40
5.046794
 40
5.046794
 40
5.046794
 10
36.546698
 20
12.730582
 30
0.0
 10
36.711329
 20
12.720971
 30
0.0
 10
37.035944
 20
12.702022
 30
0.0
 10
37.515691
 20
12.670232
 30
0.0
 10
37.987464
 20
12.634587
 30
0.0
 10
38.459354
 20
12.600621
 30
0.0
 10
38.938897
 20
12.559704
 30
0.0
 10
39.288040
 20
12.550938
 30
0.0
 10
39.498316
 20
12.518819
 30
0.0
 10
39.560747
 20
12.481642
 30
0.0
 10
39.597094
 20
12.421964
 30
0.0
 10
39.626550
 20
12.356549
 30
0.0
 10
39.643767
 20
12.281057
 30
0.0
 10
39.649533
 20
12.195450
 30
0.0
 10
39.641992
 20
12.105270
 30
0.0
 10
39.614152
 20
12.017139
 30
0.0
 10
39.566066
 20
11.947629
 30
0.0
 10
39.509085
 20
11.890288
 30
0.0
 10
39.434062
 20
11.857808
 30
0.0
 10
39.365041
 20
11.850799
 30
0.0
 10
39.297482
 20
11.853598
 30
0.0
 10
39.223396
 20
11.856929
 30
0.0
 10
39.121117
 20
11.862919
 30
0.0
 10
38.995275
 20
11.869958
 30
0.0
 10
38.850573
 20
11.876932
 30
0.0
 10
38.692161
 20
11.883742
 30
0.0
 10
38.520856
 20
11.890997
 30
0.0
 10
38.337402
 20
11.898008
 30
0.0
 10
38.210389
 20
11.902479
 30
0.0
 10
38.144534
 20
11.904798
 30
0.0
 11
36.546698
 21
12.730582
 31
0.0
 11
37.040550
 21
12.701095
 31
0.0
 11
37.520259
 21
12.669176
 31
0.0
 11
37.985888
 21
12.634982
 31
0.0
 11
38.456221
 21
12.599811
 31
0.0
 11
38.935929
 21
12.564733
 31
0.0
 11
39.425076
 21
12.529561
 31
0.0
 11
39.500380
 21
12.513053
 31
0.0
 11
39.556903
 21
12.477737
 31
0.0
 11
39.594574
 21
12.423625
 31
0.0
 11
39.623915
 21
12.356608
 31
0.0
 11
39.641456
 21
12.282544
 31
0.0
 11
39.647284
 21
12.201414
 31
0.0
 11
39.637856
 21
12.102575
 31
0.0
 11
39.609595
 21
12.017789
 31
0.0
 11
39.562534
 21
11.947168
 31
0.0
 11
39.506170
 21
11.894293
 31
0.0
 11
39.435765
 21
11.862620
 31
0.0
 11
39.351177
 21
11.852078
 31
0.0
 11
39.307680
 21
11.853194
 31
0.0
 11
39.233617
 21
11.856608
 31
0.0
 11
39.128969
 21
11.862418
 31
0.0
 11
39.000751
 21
11.869496
 31
0.0
 11
38.856031
 21
11.876550
 31
0.0
 11
38.694886
 21
11.883608
 31
0.0
 11
38.525548
 21
11.890686
 31
0.0
 11
38.342095
 21
11.897740
 31
0.0
 11
38.144534
 21
11.904798
 31
0.0
  0
SPLINE
  5
141
100
AcDbEntity
  8
Calque_1
 62
7
100
AcDbSpline
 70
0
 71
3
 72
10
 73
6
 74
4
 40
0.000000
 40
0.000000
 40
0.000000
 40
0.000000
 40
0.197999
 40
0.395876
 40
0.593623
 40
0.593623
 40
0.593623
 40
0.593623
 10
38.144534
 20
11.904798
 30
0.0
 10
38.078686
 20
11.909281
 30
0.0
 10
37.947032
 20
11.918245
 30
0.0
 10
37.749441
 20
11.929015
 30
0.0
 10
37.617669
 20
11.934231
 30
0.0
 10
37.551804
 20
11.936838
 30
0.0
 11
38.144534
 21
11.904798
 31
0.0
 11
37.946962
 21
11.917802
 31
0.0
 11
37.749377
 21
11.928527
 31
0.0
 11
37.551804
 21
11.936838
 31
0.0
  0
SPLINE
  5
142
100
AcDbEntity
  8
Calque_1
 62
7
100
AcDbSpline
 70
0
 71
3
 72
10
 73
6
 74
4
 40
0.000000
 40
0.000000
 40
0.000000
 40
0.000000
 40
0.188594
 40
0.372347
 40
0.551280
 40
0.551280
 40
0.551280
 40
0.551280
 10
37.551804
 20
11.936838
 30
0.0
 10
37.489096
 20
11.941274
 30
0.0
 10
37.365289
 20
11.950033
 30
0.0
 10
37.181820
 20
11.960519
 30
0.0
 10
37.061039
 20
11.965775
 30
0.0
 10
37.001450
 20
11.968368
 30
0.0
 11
37.551804
 21
11.936838
 31
0.0
 11
37.363651
 21
11.949717
 31
0.0
 11
37.180196
 21
11.960189
 31
0.0
 11
37.001450
 21
11.968368
 31
0.0
  0
SPLINE
  5
143
100
AcDbEntity
  8
Calque_1
 62
7
100
AcDbSpline
 70
0
 71
3
 72
10
 73
6
 74
4
 40
0.000000
 40
0.000000
 40
0.000000
 40
0.000000
 40
0.160427
 40
0.301896
 40
0.424448
 40
0.424448
 40
0.424448
 40
0.424448
 10
37.001450
 20
11.968368
 30
0.0
 10
36.948154
 20
11.972749
 30
0.0
 10
36.847861
 20
11.980995
 30
0.0
 10
36.706795
 20
11.991879
 30
0.0
 10
36.618981
 20
11.997704
 30
0.0
 10
36.578219
 20
12.000408
 30
0.0
 11
37.001450
 21
11.968368
 31
0.0
 11
36.841551
 21
11.981370
 31
0.0
 11
36.700489
 21
11.992092
 31
0.0
 11
36.578219
 21
12.000408
 31
0.0
  0
LWPOLYLINE
  5
144
100
AcDbEntity
  8
Calque_1
 62
7
100
AcDbPolyline
 90
1
 70
1
 10
37.181282
 20
14.275700
 30
0.0
  0
LWPOLYLINE
  5
145
100
AcDbEntity
  8
Calque_1
 62
7
100
AcDbPolyline
 90
2
 70
0
 10
36.546699
 20
12.328036
 30
0.0
 10
36.546698
 20
12.730582
 30
0.0
  0
SPLINE
  5
146
100
AcDbEntity
  8
Calque_1
 62
7
100
AcDbSpline
 70
0
 71
3
 72
10
 73
6
 74
4
 40
0.000000
 40
0.000000
 40
0.000000
 40
0.000000
 40
0.098329
 40
0.207973
 40
0.329251
 40
0.329251
 40
0.329251
 40
0.329251
 10
36.578219
 20
12.000408
 30
0.0
 10
36.573690
 20
12.032873
 30
0.0
 10
36.564111
 20
12.101540
 30
0.0
 10
36.553994
 20
12.210862
 30
0.0
 10
36.549211
 20
12.287688
 30
0.0
 10
36.546699
 20
12.328036
 30
0.0
 11
36.578219
 21
12.000408
 31
0.0
 11
36.565345
 21
12.097891
 31
0.0
 11
36.554873
 21
12.207033
 31
0.0
 11
36.546699
 21
12.328036
 31
0.0
  0
SPLINE
  5
147
100
AcDbEntity
  8
Calque_1
 62
7
100
AcDbSpline
 70
0
 71
3
 72
10
 73
6
 74
4
 40
0.000000
 40
0.000000
 40
0.000000
 40
0.000000
 40
0.493043
 40
0.955866
 40
1.388609
 40
1.388609
 40
1.388609
 40
1.388609
 10
59.508603
 20
16.381523
 30
0.0
 10
59.503298
 20
16.217260
 30
0.0
 10
59.493012
 20
15.898801
 30
0.0
 10
59.468954
 20
15.436501
 30
0.0
 10
59.445861
 20
15.138865
 30
0.0
 10
59.434703
 20
14.995045
 30
0.0
 11
59.508603
 21
16.381523
 31
0.0
 11
59.491017
 21
15.888794
 31
0.0
 11
59.466409
 21
15.426625
 31
0.0
 11
59.434703
 21
14.995045
 31
0.0
  0
SPLINE
  5
148
100
AcDbEntity
  8
Calque_1
 62
7
100
AcDbSpline
 70
0
 71
3
 72
10
 73
6
 74
4
 40
0.000000
 40
0.000000
 40
0.000000
 40
0.000000
 40
0.408996
 40
0.815624
 40
1.219927
 40
1.219927
 40
1.219927
 40
1.219927
 10
59.434703
 20
14.995045
 30
0.0
 10
59.425300
 20
14.859038
 30
0.0
 10
59.406548
 20
14.587810
 30
0.0
 10
59.378274
 20
14.182152
 30
0.0
 10
59.359375
 20
13.912503
 30
0.0
 10
59.349953
 20
13.778065
 30
0.0
 11
59.434703
 21
14.995045
 31
0.0
 11
59.406455
 21
14.587025
 31
0.0
 11
59.378194
 21
14.181381
 31
0.0
 11
59.349953
 21
13.778065
 31
0.0
  0
SPLINE
  5
149
100
AcDbEntity
  8
Calque_1
 62
7
100
AcDbSpline
 70
0
 71
3
 72
10
 73
6
 74
4
 40
0.000000
 40
0.000000
 40
0.000000
 40
0.000000
 40
0.258869
 40
0.548295
 40
0.868282
 40
0.868282
 40
0.868282
 40
0.868282
 10
59.349953
 20
13.778065
 30
0.0
 10
59.264918
 20
13.792730
 30
0.0
 10
59.084810
 20
13.823791
 30
0.0
 10
58.798979
 20
13.869322
 30
0.0
 10
58.598113
 20
13.899617
 30
0.0
 10
58.492643
 20
13.915524
 30
0.0
 11
59.349953
 21
13.778065
 31
0.0
 11
59.094761
 21
13.821545
 31
0.0
 11
58.808982
 21
13.867345
 31
0.0
 11
58.492643
 21
13.915524
 31
0.0
  0
SPLINE
  5
14a
100
AcDbEntity
  8
Calque_1
 62
7
100
AcDbSpline
 70
0
 71
3
 72
13
 73
9
 74
7
 40
0.000000
 40
0.000000
 40
0.000000
 40
0.000000
 40
0.335092
 40
0.667536
 40
0.997233
 40
1.308667
 40
1.600438
 40
1.872705
 40
1.872705
 40
1.872705
 40
1.872705
 10
58.492643
 20
13.915524
 30
0.0
 10
58.382502
 20
13.934108
 30
0.0
 10
58.163091
 20
13.971128
 30
0.0
 10
57.834945
 20
14.024224
 30
0.0
 10
57.514259
 20
14.073998
 30
0.0
 10
57.206762
 20
14.120346
 30
0.0
 10
56.917543
 20
14.159421
 30
0.0
 10
56.730734
 20
14.180692
 30
0.0
 10
56.640559
 20
14.190960
 30
0.0
 11
58.492643
 21
13.915524
 31
0.0
 11
58.162158
 21
13.970902
 31
0.0
 11
57.833985
 21
14.024017
 31
0.0
 11
57.508205
 21
14.074687
 31
0.0
 11
57.200161
 21
14.120511
 31
0.0
 11
56.910973
 21
14.159247
 31
0.0
 11
56.640559
 21
14.190960
 31
0.0
  0
LWPOLYLINE
  5
14b
100
AcDbEntity
  8
Calque_1
 62
7
100
AcDbPolyline
 90
2
 70
0
 10
56.196144
 20
16.381523
 30
0.0
 10
59.508603
 20
16.381523
 30
0.0
  0
SPLINE
  5
14c
100
AcDbEntity
  8
Calque_1
 62
7
100
AcDbSpline
 70
0
 71
3
 72
16
 73
12
 74
10
 40
0.000000
 40
0.000000
 40
0.000000
 40
0.000000
 40
0.228907
 40
0.402774
 40
0.521750
 40
0.768718
 40
0.985972
 40
1.260672
 40
1.439442
 40
1.577129
 40
1.728283
 40
1.728283
 40
1.728283
 40
1.728283
 10
56.640559
 20
14.190960
 30
0.0
 10
56.564978
 20
14.201178
 30
0.0
 10
56.431988
 20
14.219158
 30
0.0
 10
56.258615
 20
14.237198
 30
0.0
 10
56.080210
 20
14.249318
 30
0.0
 10
55.875654
 20
14.220587
 30
0.0
 10
55.703775
 20
14.018076
 30
0.0
 10
55.681616
 20
13.788877
 30
0.0
 10
55.696603
 20
13.589640
 30
0.0
 10
55.800673
 20
13.454018
 30
0.0
 10
55.900504
 20
13.444541
 30
0.0
 10
55.952746
 20
13.439582
 30
0.0
 11
56.640559
 21
14.190960
 31
0.0
 11
56.413541
 21
14.220306
 31
0.0
 11
56.240560
 21
14.237844
 31
0.0
 11
56.121727
 21
14.243670
 31
0.0
 11
55.880754
 21
14.189588
 31
0.0
 11
55.736285
 21
14.027329
 31
0.0
 11
55.688163
 21
13.756876
 31
0.0
 11
55.717560
 21
13.580540
 31
0.0
 11
55.805754
 21
13.474806
 31
0.0
 11
55.952746
 21
13.439582
 31
0.0
  0
LWPOLYLINE
  5
14d
100
AcDbEntity
  8
Calque_1
 62
7
100
AcDbPolyline
 90
3
 70
0
 10
55.952746
 20
13.439582
 30
0.0
 10
56.375976
 20
13.439582
 30
0.0
 10
56.894805
 20
13.439582
 30
0.0
  0
SPLINE
  5
14e
100
AcDbEntity
  8
Calque_1
 62
7
100
AcDbSpline
 70
0
 71
3
 72
10
 73
6
 74
4
 40
0.000000
 40
0.000000
 40
0.000000
 40
0.000000
 40
0.181187
 40
0.357609
 40
0.529298
 40
0.529298
 40
0.529298
 40
0.529298
 10
56.894805
 20
13.439582
 30
0.0
 10
56.955165
 20
13.441686
 30
0.0
 10
57.074296
 20
13.445839
 30
0.0
 10
57.250705
 20
13.449257
 30
0.0
 10
57.366742
 20
13.449709
 30
0.0
 10
57.423972
 20
13.449932
 30
0.0
 11
56.894805
 21
13.439582
 31
0.0
 11
57.075898
 21
13.445421
 31
0.0
 11
57.252287
 21
13.448826
 31
0.0
 11
57.423972
 21
13.449932
 31
0.0
  0
SPLINE
  5
14f
100
AcDbEntity
  8
Calque_1
 62
7
100
AcDbSpline
 70
0
 71
3
 72
10
 73
6
 74
4
 40
0.000000
 40
0.000000
 40
0.000000
 40
0.000000
 40
0.466398
 40
0.863719
 40
1.219771
 40
1.219771
 40
1.219771
 40
1.219771
 10
57.878725
 20
13.449932
 30
0.0
 10
58.034040
 20
13.443002
 30
0.0
 10
58.321665
 20
13.430169
 30
0.0
 10
58.721238
 20
13.313267
 30
0.0
 10
58.918326
 20
13.154462
 30
0.0
 10
59.011472
 20
13.079409
 30
0.0
 11
57.878725
 21
13.449932
 31
0.0
 11
58.343302
 21
13.408747
 31
0.0
 11
58.720933
 21
13.285224
 31
0.0
 11
59.011472
 21
13.079409
 31
0.0
  0
SPLINE
  5
150
100
AcDbEntity
  8
Calque_1
 62
7
100
AcDbSpline
 70
0
 71
3
 72
19
 73
15
 74
13
 40
0.000000
 40
0.000000
 40
0.000000
 40
0.000000
 40
0.350872
 40
0.719149
 40
1.132886
 40
1.434245
 40
1.706122
 40
1.953345
 40
2.185958
 40
2.416454
 40
2.654185
 40
2.904685
 40
3.183644
 40
3.496146
 40
3.496146
 40
3.496146
 40
3.496146
 10
59.011472
 20
13.079409
 30
0.0
 10
59.088319
 20
12.990005
 30
0.0
 10
59.245825
 20
12.806763
 30
0.0
 10
59.368798
 20
12.440981
 30
0.0
 10
59.400003
 20
12.079779
 30
0.0
 10
59.383446
 20
11.750520
 30
0.0
 10
59.339244
 20
11.479952
 30
0.0
 10
59.263668
 20
11.239861
 30
0.0
 10
59.151369
 20
11.029630
 30
0.0
 10
58.999695
 20
10.849585
 30
0.0
 10
58.809837
 20
10.701273
 30
0.0
 10
58.585466
 20
10.576787
 30
0.0
 10
58.321423
 20
10.478316
 30
0.0
 10
58.128807
 20
10.435519
 30
0.0
 10
58.027037
 20
10.412907
 30
0.0
 11
59.011472
 21
13.079409
 31
0.0
 11
59.223102
 21
12.799545
 31
0.0
 11
59.350033
 21
12.453833
 31
0.0
 11
59.392329
 21
12.042264
 31
0.0
 11
59.377074
 21
11.741292
 31
0.0
 11
59.331271
 21
11.473300
 31
0.0
 11
59.254868
 21
11.238179
 31
0.0
 11
59.144220
 21
11.033568
 31
0.0
 11
58.995844
 21
10.857179
 31
0.0
 11
58.809934
 21
10.709012
 31
0.0
 11
58.591283
 21
10.586775
 31
0.0
 11
58.330357
 21
10.488107
 31
0.0
 11
58.027037
 21
10.412907
 31
0.0
  0
SPLINE
  5
151
100
AcDbEntity
  8
Calque_1
 62
7
100
AcDbSpline
 70
0
 71
3
 72
13
 73
9
 74
7
 40
0.000000
 40
0.000000
 40
0.000000
 40
0.000000
 40
0.344277
 40
0.733410
 40
1.168631
 40
1.439077
 40
1.756606
 40
2.121307
 40
2.121307
 40
2.121307
 40
2.121307
 10
58.027037
 20
10.412907
 30
0.0
 10
57.913533
 20
10.395681
 30
0.0
 10
57.671736
 20
10.358984
 30
0.0
 10
57.282598
 20
10.333898
 30
0.0
 10
56.917696
 20
10.326473
 30
0.0
 10
56.576626
 20
10.330213
 30
0.0
 10
56.259144
 20
10.337362
 30
0.0
 10
56.031866
 20
10.345172
 30
0.0
 10
55.910370
 20
10.349347
 30
0.0
 11
58.027037
 21
10.412907
 31
0.0
 11
57.685992
 21
10.365846
 31
0.0
 11
57.297886
 21
10.337585
 31
0.0
 11
56.862767
 21
10.328157
 31
0.0
 11
56.592331
 21
10.330520
 31
0.0
 11
56.274881
 21
10.337591
 31
0.0
 11
55.910370
 21
10.349347
 31
0.0
  0
SPLINE
  5
152
100
AcDbEntity
  8
Calque_1
 62
7
100
AcDbSpline
 70
0
 71
3
 72
10
 73
6
 74
4
 40
0.000000
 40
0.000000
 40
0.000000
 40
0.000000
 40
0.413440
 40
0.890562
 40
1.431335
 40
1.431335
 40
1.431335
 40
1.431335
 10
55.910370
 20
10.349347
 30
0.0
 10
55.772775
 20
10.357093
 30
0.0
 10
55.476390
 20
10.373779
 30
0.0
 10
55.000103
 20
10.401844
 30
0.0
 10
54.661438
 20
10.422567
 30
0.0
 10
54.481517
 20
10.433577
 30
0.0
 11
55.910370
 21
10.349347
 31
0.0
 11
55.497593
 21
10.372753
 31
0.0
 11
55.021294
 21
10.400764
 31
0.0
 11
54.481517
 21
10.433577
 31
0.0
  0
SPLINE
  5
153
100
AcDbEntity
  8
Calque_1
 62
7
100
AcDbSpline
 70
0
 71
3
 72
10
 73
6
 74
4
 40
0.000000
 40
0.000000
 40
0.000000
 40
0.000000
 40
0.269538
 40
0.538905
 40
0.808010
 40
0.808010
 40
0.808010
 40
0.808010
 10
54.481517
 20
10.433577
 30
0.0
 10
54.490676
 20
10.522955
 30
0.0
 10
54.508989
 20
10.701655
 30
0.0
 10
54.533564
 20
10.969875
 30
0.0
 10
54.548135
 20
11.148774
 30
0.0
 10
54.555417
 20
11.238180
 30
0.0
 11
54.481517
 21
10.433577
 31
0.0
 11
54.508514
 21
10.701759
 31
0.0
 11
54.533120
 21
10.970000
 31
0.0
 11
54.555417
 21
11.238180
 31
0.0
  0
SPLINE
  5
154
100
AcDbEntity
  8
Calque_1
 62
7
100
AcDbSpline
 70
0
 71
3
 72
10
 73
6
 74
4
 40
0.000000
 40
0.000000
 40
0.000000
 40
0.000000
 40
0.272394
 40
0.536742
 40
0.793592
 40
0.793592
 40
0.793592
 40
0.793592
 10
54.555417
 20
11.238180
 30
0.0
 10
54.565692
 20
11.328401
 30
0.0
 10
54.585938
 20
11.506179
 30
0.0
 10
54.628117
 20
11.767474
 30
0.0
 10
54.664575
 20
11.937357
 30
0.0
 10
54.682542
 20
12.021077
 30
0.0
 11
54.555417
 21
11.238180
 31
0.0
 11
54.588374
 21
11.508573
 31
0.0
 11
54.630768
 21
11.769499
 31
0.0
 11
54.682542
 21
12.021077
 31
0.0
  0
LWPOLYLINE
  5
155
100
AcDbEntity
  8
Calque_1
 62
7
100
AcDbPolyline
 90
2
 70
0
 10
57.423972
 20
13.449932
 30
0.0
 10
57.878725
 20
13.449932
 30
0.0
  0
SPLINE
  5
156
100
AcDbEntity
  8
Calque_1
 62
7
100
AcDbSpline
 70
0
 71
3
 72
28
 73
24
 74
22
 40
0.000000
 40
0.000000
 40
0.000000
 40
0.000000
 40
0.231081
 40
0.495112
 40
0.792018
 40
1.109805
 40
1.422598
 40
1.730467
 40
2.033372
 40
2.317266
 40
2.582251
 40
2.811590
 40
2.988545
 40
3.113282
 40
3.206771
 40
3.293862
 40
3.381087
 40
3.476984
 40
3.594212
 40
3.740369
 40
3.950411
 40
4.145141
 40
4.388749
 40
4.388749
 40
4.388749
 40
4.388749
 10
54.682542
 20
12.021077
 30
0.0
 10
54.758579
 20
12.008758
 30
0.0
 10
54.921494
 20
11.982364
 30
0.0
 10
55.182720
 20
11.944102
 30
0.0
 10
55.472775
 20
11.903304
 30
0.0
 10
55.779392
 20
11.863684
 30
0.0
 10
56.089792
 20
11.824873
 30
0.0
 10
56.395475
 20
11.788337
 30
0.0
 10
56.691853
 20
11.755210
 30
0.0
 10
56.974006
 20
11.723499
 30
0.0
 10
57.231790
 20
11.694587
 30
0.0
 10
57.454273
 20
11.670551
 30
0.0
 10
57.630756
 20
11.656670
 30
0.0
 10
57.762214
 20
11.648215
 30
0.0
 10
57.864556
 20
11.656830
 30
0.0
 10
57.948696
 20
11.689909
 30
0.0
 10
58.022159
 20
11.744394
 30
0.0
 10
58.077681
 20
11.830392
 30
0.0
 10
58.106261
 20
11.948207
 30
0.0
 10
58.118079
 20
12.104882
 30
0.0
 10
58.088672
 20
12.295518
 30
0.0
 10
57.916770
 20
12.451716
 30
0.0
 10
57.770079
 20
12.474526
 30
0.0
 10
57.688555
 20
12.487203
 30
0.0
 11
54.682542
 21
12.021077
 31
0.0
 11
54.910735
 21
11.984660
 31
0.0
 11
55.171910
 21
11.945924
 31
0.0
 11
55.465954
 21
11.904806
 31
0.0
 11
55.781070
 21
11.863689
 31
0.0
 11
56.091455
 21
11.824953
 31
0.0
 11
56.397163
 21
11.788534
 31
0.0
 11
56.698147
 21
11.754475
 31
0.0
 11
56.980270
 21
11.722807
 31
0.0
 11
57.243623
 21
11.693454
 31
0.0
 11
57.471753
 21
11.669927
 31
0.0
 11
57.648142
 21
11.655798
 31
0.0
 11
57.772790
 21
11.651084
 31
0.0
 11
57.865684
 21
11.661623
 31
0.0
 11
57.946812
 21
11.693291
 31
0.0
 11
58.016186
 21
11.746164
 31
0.0
 11
58.069194
 21
11.826079
 31
0.0
 11
58.101112
 21
11.938879
 31
0.0
 11
58.111786
 21
12.084645
 31
0.0
 11
58.064776
 21
12.289359
 31
0.0
 11
57.923714
 21
12.423603
 31
0.0
 11
57.688555
 21
12.487203
 31
0.0
  0
SPLINE
  5
157
100
AcDbEntity
  8
Calque_1
 62
7
100
AcDbSpline
 70
0
 71
3
 72
10
 73
6
 74
4
 40
0.000000
 40
0.000000
 40
0.000000
 40
0.000000
 40
0.529409
 40
0.983581
 40
1.384196
 40
1.384196
 40
1.384196
 40
1.384196
 10
56.101055
 20
12.582293
 30
0.0
 10
55.925499
 20
12.599973
 30
0.0
 10
55.599337
 20
12.632821
 30
0.0
 10
55.150753
 20
12.770052
 30
0.0
 10
54.918508
 20
12.937769
 30
0.0
 10
54.809661
 20
13.016374
 30
0.0
 11
56.101055
 21
12.582293
 31
0.0
 11
55.576534
 21
12.654068
 31
0.0
 11
55.146036
 21
12.798786
 31
0.0
 11
54.809661
 21
13.016374
 31
0.0
  0
SPLINE
  5
158
100
AcDbEntity
  8
Calque_1
 62
7
100
AcDbSpline
 70
0
 71
3
 72
13
 73
9
 74
7
 40
0.000000
 40
0.000000
 40
0.000000
 40
0.000000
 40
0.384755
 40
0.800906
 40
1.281774
 40
1.934145
 40
2.496609
 40
3.000728
 40
3.000728
 40
3.000728
 40
3.000728
 10
54.809661
 20
13.016374
 30
0.0
 10
54.724014
 20
13.113403
 30
0.0
 10
54.545732
 20
13.315379
 30
0.0
 10
54.411463
 20
13.731827
 30
0.0
 10
54.371142
 20
14.248189
 30
0.0
 10
54.416980
 20
14.812879
 30
0.0
 10
54.560881
 20
15.377407
 30
0.0
 10
54.765608
 20
15.671162
 30
0.0
 10
54.862372
 20
15.810004
 30
0.0
 11
54.809661
 21
13.016374
 31
0.0
 11
54.574504
 21
13.320902
 31
0.0
 11
54.433442
 21
13.712416
 31
0.0
 11
54.386431
 21
14.190981
 31
0.0
 11
54.439268
 21
14.841208
 31
0.0
 11
54.597869
 21
15.380849
 31
0.0
 11
54.862372
 21
15.810004
 31
0.0
  0
LWPOLYLINE
  5
159
100
AcDbEntity
  8
Calque_1
 62
7
100
AcDbPolyline
 90
2
 70
0
 10
57.688555
 20
12.487203
 30
0.0
 10
56.101055
 20
12.582293
 30
0.0
  0
SPLINE
  5
15a
100
AcDbEntity
  8
Calque_1
 62
7
100
AcDbSpline
 70
0
 71
3
 72
10
 73
6
 74
4
 40
0.000000
 40
0.000000
 40
0.000000
 40
0.000000
 40
0.479941
 40
0.963669
 40
1.496702
 40
1.496702
 40
1.496702
 40
1.496702
 10
54.862372
 20
15.810004
 30
0.0
 10
54.975911
 20
15.924414
 30
0.0
 10
55.203884
 20
16.154137
 30
0.0
 10
55.678727
 20
16.349876
 30
0.0
 10
56.018183
 20
16.370651
 30
0.0
 10
56.196141
 20
16.381543
 30
0.0
 11
54.862372
 21
15.810004
 31
0.0
 11
55.222275
 21
16.127514
 31
0.0
 11
55.666905
 21
16.318033
 31
0.0
 11
56.196141
 21
16.381543
 31
0.0
  0
SPLINE
  5
15b
100
AcDbEntity
  8
Calque_1
 62
7
100
AcDbSpline
 70
0
 71
3
 72
10
 73
6
 74
4
 40
0.000000
 40
0.000000
 40
0.000000
 40
0.000000
 40
0.554398
 40
1.090725
 40
1.612071
 40
1.612071
 40
1.612071
 40
1.612071
 10
33.225971
 20
16.339149
 30
0.0
 10
33.410714
 20
16.333169
 30
0.0
 10
33.774179
 20
16.321404
 30
0.0
 10
34.308897
 20
16.259019
 30
0.0
 10
34.653798
 20
16.185312
 30
0.0
 10
34.823806
 20
16.148980
 30
0.0
 11
33.225971
 21
16.339149
 31
0.0
 11
33.779768
 21
16.313343
 31
0.0
 11
34.312343
 21
16.250012
 31
0.0
 11
34.823806
 21
16.148980
 31
0.0
  0
SPLINE
  5
15c
100
AcDbEntity
  8
Calque_1
 62
7
100
AcDbSpline
 70
0
 71
3
 72
13
 73
9
 74
7
 40
0.000000
 40
0.000000
 40
0.000000
 40
0.000000
 40
0.992314
 40
1.975462
 40
2.949325
 40
3.903417
 40
4.841454
 40
5.763512
 40
5.763512
 40
5.763512
 40
5.763512
 10
34.823806
 20
16.148980
 30
0.0
 10
34.802471
 20
15.818897
 30
0.0
 10
34.759997
 20
15.161781
 30
0.0
 10
34.692717
 20
14.180976
 30
0.0
 10
34.624205
 20
13.213027
 30
0.0
 10
34.551197
 20
12.260485
 30
0.0
 10
34.473834
 20
11.325608
 30
0.0
 10
34.417600
 20
10.708129
 30
0.0
 10
34.389725
 20
10.402042
 30
0.0
 11
34.823806
 21
16.148980
 31
0.0
 11
34.759146
 21
15.158775
 31
0.0
 11
34.692149
 21
14.177913
 31
0.0
 11
34.622786
 21
13.206523
 31
0.0
 11
34.549818
 21
12.255225
 31
0.0
 11
34.472098
 21
11.320413
 31
0.0
 11
34.389725
 21
10.402042
 31
0.0
  0
SPLINE
  5
15d
100
AcDbEntity
  8
Calque_1
 62
7
100
AcDbSpline
 70
0
 71
3
 72
10
 73
6
 74
4
 40
0.000000
 40
0.000000
 40
0.000000
 40
0.000000
 40
0.303456
 40
0.631234
 40
0.985721
 40
0.985721
 40
0.985721
 40
0.985721
 10
34.389725
 20
10.402042
 30
0.0
 10
34.293430
 20
10.370884
 30
0.0
 10
34.093120
 20
10.306070
 30
0.0
 10
33.770345
 20
10.240673
 30
0.0
 10
33.544393
 20
10.214580
 30
0.0
 10
33.426994
 20
10.201023
 30
0.0
 11
34.389725
 21
10.402042
 31
0.0
 11
34.099362
 21
10.313868
 31
0.0
 11
33.778504
 21
10.246870
 31
0.0
 11
33.426994
 21
10.201023
 31
0.0
  0
LWPOLYLINE
  5
15e
100
AcDbEntity
  8
Calque_1
 62
7
100
AcDbPolyline
 90
1
 70
1
 10
56.196141
 20
16.381543
 30
0.0
  0
SPLINE
  5
15f
100
AcDbEntity
  8
Calque_1
 62
7
100
AcDbSpline
 70
0
 71
3
 72
13
 73
9
 74
7
 40
0.000000
 40
0.000000
 40
0.000000
 40
0.000000
 40
1.050167
 40
2.084048
 40
3.101698
 40
4.112504
 40
5.125984
 40
6.142402
 40
6.142402
 40
6.142402
 40
6.142402
 10
33.426994
 20
10.201023
 30
0.0
 10
33.425857
 20
10.551080
 30
0.0
 10
33.423601
 20
11.245767
 30
0.0
 10
33.405312
 20
12.279540
 30
0.0
 10
33.375690
 20
13.299909
 30
0.0
 10
33.335183
 20
14.313091
 30
0.0
 10
33.286608
 20
15.325515
 30
0.0
 10
33.246201
 20
16.000945
 30
0.0
 10
33.225968
 20
16.339149
 30
0.0
 11
33.426994
 21
10.201023
 31
0.0
 11
33.421036
 21
11.251173
 31
0.0
 11
33.403249
 21
12.284901
 31
0.0
 11
33.373764
 21
13.302124
 31
0.0
 11
33.333877
 21
14.312143
 31
0.0
 11
33.284666
 21
15.324427
 31
0.0
 11
33.225968
 21
16.339149
 31
0.0
  0
SPLINE
  5
160
100
AcDbEntity
  8
Calque_1
 62
7
100
AcDbSpline
 70
0
 71
3
 72
13
 73
9
 74
7
 40
0.000000
 40
0.000000
 40
0.000000
 40
0.000000
 40
0.797708
 40
1.567506
 40
2.309401
 40
3.028102
 40
3.728341
 40
4.410174
 40
4.410174
 40
4.410174
 40
4.410174
 10
49.799118
 20
16.254917
 30
0.0
 10
49.806769
 20
15.989122
 30
0.0
 10
49.821802
 20
15.466833
 30
0.0
 10
49.853630
 20
14.697669
 30
0.0
 10
49.892490
 20
13.955207
 30
0.0
 10
49.937674
 20
13.236339
 30
0.0
 10
49.986611
 20
12.537781
 30
0.0
 10
50.024050
 20
12.078611
 30
0.0
 10
50.042520
 20
11.852083
 30
0.0
 11
49.799118
 21
16.254917
 31
0.0
 11
49.823771
 21
15.457590
 31
0.0
 11
49.855442
 21
14.688444
 31
0.0
 11
49.894208
 21
13.947562
 31
0.0
 11
49.938928
 21
13.230254
 31
0.0
 11
49.988386
 21
12.531764
 31
0.0
 11
50.042520
 21
11.852083
 31
0.0
  0
SPLINE
  5
161
100
AcDbEntity
  8
Calque_1
 62
7
100
AcDbSpline
 70
0
 71
3
 72
16
 73
12
 74
10
 40
0.000000
 40
0.000000
 40
0.000000
 40
0.000000
 40
0.225464
 40
0.448365
 40
0.668769
 40
0.893645
 40
1.115947
 40
1.335827
 40
1.589911
 40
1.844247
 40
2.098923
 40
2.098923
 40
2.098923
 40
2.098923
 10
50.042520
 20
11.852083
 30
0.0
 10
50.117363
 20
11.845242
 30
0.0
 10
50.266199
 20
11.831636
 30
0.0
 10
50.488428
 20
11.814015
 30
0.0
 10
50.710588
 20
11.798051
 30
0.0
 10
50.932825
 20
11.786355
 30
0.0
 10
51.155080
 20
11.779286
 30
0.0
 10
51.387174
 20
11.776662
 30
0.0
 10
51.629941
 20
11.780146
 30
0.0
 10
51.884144
 20
11.790531
 30
0.0
 10
52.053343
 20
11.803310
 30
0.0
 10
52.137999
 20
11.809703
 30
0.0
 11
50.042520
 21
11.852083
 31
0.0
 11
50.267089
 21
11.832012
 31
0.0
 11
50.489279
 21
11.814224
 31
0.0
 11
50.709146
 21
11.798853
 31
0.0
 11
50.933715
 21
11.787093
 31
0.0
 11
51.155905
 21
11.780023
 31
0.0
 11
51.375771
 21
11.777663
 31
0.0
 11
51.629830
 21
11.781265
 31
0.0
 11
51.883940
 21
11.791987
 31
0.0
 11
52.137999
 21
11.809703
 31
0.0
  0
SPLINE
  5
162
100
AcDbEntity
  8
Calque_1
 62
7
100
AcDbSpline
 70
0
 71
3
 72
13
 73
9
 74
7
 40
0.000000
 40
0.000000
 40
0.000000
 40
0.000000
 40
0.654862
 40
1.313690
 40
1.976637
 40
2.649559
 40
3.338315
 40
4.043034
 40
4.043034
 40
4.043034
 40
4.043034
 10
52.137999
 20
11.809703
 30
0.0
 10
52.160870
 20
12.026792
 30
0.0
 10
52.206751
 20
12.462284
 30
0.0
 10
52.266069
 20
13.118506
 30
0.0
 10
52.319821
 20
13.781244
 30
0.0
 10
52.363801
 20
14.454715
 30
0.0
 10
52.396116
 20
15.142814
 30
0.0
 10
52.407617
 20
15.607174
 30
0.0
 10
52.413433
 20
15.842014
 30
0.0
 11
52.137999
 21
11.809703
 31
0.0
 11
52.205008
 21
12.461127
 31
0.0
 11
52.264940
 21
13.117224
 31
0.0
 11
52.317833
 21
13.778058
 31
0.0
 11
52.361434
 21
14.449566
 31
0.0
 11
52.393352
 21
15.137582
 31
0.0
 11
52.413433
 21
15.842014
 31
0.0
  0
SPLINE
  5
163
100
AcDbEntity
  8
Calque_1
 62
7
100
AcDbSpline
 70
0
 71
3
 72
10
 73
6
 74
4
 40
0.000000
 40
0.000000
 40
0.000000
 40
0.000000
 40
0.391535
 40
0.780682
 40
1.168774
 40
1.168774
 40
1.168774
 40
1.168774
 10
52.413433
 20
15.842014
 30
0.0
 10
52.542571
 20
15.861038
 30
0.0
 10
52.800059
 20
15.898970
 30
0.0
 10
53.188732
 20
15.930778
 30
0.0
 10
53.447819
 20
15.934997
 30
0.0
 10
53.577186
 20
15.937104
 30
0.0
 11
52.413433
 21
15.842014
 31
0.0
 11
52.801382
 21
15.894889
 31
0.0
 11
53.189238
 21
15.926562
 31
0.0
 11
53.577186
 21
15.937104
 31
0.0
  0
SPLINE
  5
164
100
AcDbEntity
  8
Calque_1
 62
7
100
AcDbSpline
 70
0
 71
3
 72
10
 73
6
 74
4
 40
0.000000
 40
0.000000
 40
0.000000
 40
0.000000
 40
0.655291
 40
1.306186
 40
1.952809
 40
1.952809
 40
1.952809
 40
1.952809
 10
53.577186
 20
15.937104
 30
0.0
 10
53.562650
 20
15.719157
 30
0.0
 10
53.533675
 20
15.284726
 30
0.0
 10
53.484544
 20
14.635634
 30
0.0
 10
53.447736
 20
14.204695
 30
0.0
 10
53.429393
 20
13.989935
 30
0.0
 11
53.577186
 21
15.937104
 31
0.0
 11
53.532599
 21
15.283332
 31
0.0
 11
53.483389
 21
14.634300
 31
0.0
 11
53.429393
 21
13.989935
 31
0.0
  0
SPLINE
  5
165
100
AcDbEntity
  8
Calque_1
 62
7
100
AcDbSpline
 70
0
 71
3
 72
13
 73
9
 74
7
 40
0.000000
 40
0.000000
 40
0.000000
 40
0.000000
 40
0.633701
 40
1.261021
 40
1.882028
 40
2.187804
 40
2.466316
 40
2.717754
 40
2.717754
 40
2.717754
 40
2.717754
 10
53.429393
 20
13.989935
 30
0.0
 10
53.412274
 20
13.779393
 30
0.0
 10
53.378209
 20
13.360430
 30
0.0
 10
53.317477
 20
12.736012
 30
0.0
 10
53.261944
 20
12.220950
 30
0.0
 10
53.214131
 20
11.822034
 30
0.0
 10
53.172954
 20
11.546420
 30
0.0
 10
53.138691
 20
11.373105
 30
0.0
 10
53.122434
 20
11.290875
 30
0.0
 11
53.429393
 21
13.989935
 31
0.0
 11
53.376363
 21
13.358457
 31
0.0
 11
53.316182
 21
12.734030
 31
0.0
 11
53.249042
 21
12.116663
 31
0.0
 11
53.211513
 21
11.813199
 31
0.0
 11
53.169369
 21
11.537894
 31
0.0
 11
53.122434
 21
11.290875
 31
0.0
  0
SPLINE
  5
166
100
AcDbEntity
  8
Calque_1
 62
7
100
AcDbSpline
 70
0
 71
3
 72
25
 73
21
 74
19
 40
0.000000
 40
0.000000
 40
0.000000
 40
0.000000
 40
0.219664
 40
0.420516
 40
0.604684
 40
0.771236
 40
0.933186
 40
1.095618
 40
1.264738
 40
1.453883
 40
1.667004
 40
1.784783
 40
1.926020
 40
2.090774
 40
2.267316
 40
2.457965
 40
2.662708
 40
2.871027
 40
3.086428
 40
3.308776
 40
3.308776
 40
3.308776
 40
3.308776
 10
53.122434
 20
11.290875
 30
0.0
 10
53.107412
 20
11.219149
 30
0.0
 10
53.078655
 20
11.081839
 30
0.0
 10
53.014275
 20
10.890452
 30
0.0
 10
52.939282
 20
10.721955
 30
0.0
 10
52.842340
 20
10.579970
 30
0.0
 10
52.727713
 20
10.462414
 30
0.0
 10
52.594765
 20
10.363318
 30
0.0
 10
52.432900
 20
10.297079
 30
0.0
 10
52.247515
 20
10.251318
 30
0.0
 10
52.074651
 20
10.233648
 30
0.0
 10
51.917552
 20
10.224943
 30
0.0
 10
51.776464
 20
10.217808
 30
0.0
 10
51.615758
 20
10.211175
 30
0.0
 10
51.438589
 20
10.203962
 30
0.0
 10
51.248071
 20
10.197005
 30
0.0
 10
51.046959
 20
10.189919
 30
0.0
 10
50.837558
 20
10.183787
 30
0.0
 10
50.622220
 20
10.180430
 30
0.0
 10
50.476303
 20
10.180020
 30
0.0
 10
50.402187
 20
10.179812
 30
0.0
 11
53.122434
 21
11.290875
 31
0.0
 11
53.072999
 21
11.076846
 31
0.0
 11
53.009409
 21
10.886326
 31
0.0
 11
52.931749
 21
10.719333
 31
0.0
 11
52.837721
 21
10.581862
 31
0.0
 11
52.724922
 21
10.465654
 31
0.0
 11
52.593267
 21
10.370517
 31
0.0
 11
52.438040
 21
10.303389
 31
0.0
 11
52.254586
 21
10.257339
 31
0.0
 11
52.042913
 21
10.232542
 31
0.0
 11
51.925347
 21
10.225462
 31
0.0
 11
51.784286
 21
10.218406
 31
0.0
 11
51.619683
 21
10.211352
 31
0.0
 11
51.443284
 21
10.204272
 31
0.0
 11
51.252765
 21
10.197216
 31
0.0
 11
51.048143
 21
10.190162
 31
0.0
 11
50.839906
 21
10.184323
 31
0.0
 11
50.624533
 21
10.180918
 31
0.0
 11
50.402187
 21
10.179812
 31
0.0
  0
SPLINE
  5
167
100
AcDbEntity
  8
Calque_1
 62
7
100
AcDbSpline
 70
0
 71
3
 72
13
 73
9
 74
7
 40
0.000000
 40
0.000000
 40
0.000000
 40
0.000000
 40
0.216343
 40
0.427838
 40
0.634697
 40
1.074918
 40
1.457531
 40
1.822023
 40
1.822023
 40
1.822023
 40
1.822023
 10
50.402187
 20
10.179812
 30
0.0
 10
50.330104
 20
10.177654
 30
0.0
 10
50.187552
 20
10.173385
 30
0.0
 10
49.975999
 20
10.170744
 30
0.0
 10
49.689840
 20
10.165910
 30
0.0
 10
49.346351
 20
10.194961
 30
0.0
 10
48.965509
 20
10.340595
 30
0.0
 10
48.793288
 20
10.524268
 30
0.0
 10
48.709266
 20
10.613877
 30
0.0
 11
50.402187
 21
10.179812
 31
0.0
 11
50.185923
 21
10.173973
 31
0.0
 11
49.974456
 21
10.170568
 31
0.0
 11
49.767599
 21
10.169462
 31
0.0
 11
49.330156
 21
10.218830
 31
0.0
 11
48.977378
 21
10.366956
 31
0.0
 11
48.709266
 21
10.613877
 31
0.0
  0
SPLINE
  5
168
100
AcDbEntity
  8
Calque_1
 62
7
100
AcDbSpline
 70
0
 71
3
 72
10
 73
6
 74
4
 40
0.000000
 40
0.000000
 40
0.000000
 40
0.000000
 40
0.394349
 40
0.841595
 40
1.353754
 40
1.353754
 40
1.353754
 40
1.353754
 10
48.709266
 20
10.613877
 30
0.0
 10
48.640095
 20
10.726101
 30
0.0
 10
48.492475
 20
10.965602
 30
0.0
 10
48.353511
 20
11.399348
 30
0.0
 10
48.302445
 20
11.715041
 30
0.0
 10
48.275185
 20
11.883568
 30
0.0
 11
48.709266
 21
10.613877
 31
0.0
 11
48.515197
 21
10.957168
 31
0.0
 11
48.370479
 21
11.380352
 31
0.0
 11
48.275185
 21
11.883568
 31
0.0
  0
SPLINE
  5
169
100
AcDbEntity
  8
Calque_1
 62
7
100
AcDbSpline
 70
0
 71
3
 72
10
 73
6
 74
4
 40
0.000000
 40
0.000000
 40
0.000000
 40
0.000000
 40
0.704863
 40
1.426143
 40
2.163703
 40
2.163703
 40
2.163703
 40
2.163703
 10
48.275185
 20
11.883568
 30
0.0
 10
48.246817
 20
12.116804
 30
0.0
 10
48.189420
 20
12.588707
 30
0.0
 10
48.104649
 20
13.304944
 30
0.0
 10
48.049048
 20
13.788035
 30
0.0
 10
48.020937
 20
14.032276
 30
0.0
 11
48.275185
 21
11.883568
 31
0.0
 11
48.190453
 21
12.583320
 31
0.0
 11
48.105667
 21
13.299599
 31
0.0
 11
48.020937
 21
14.032276
 31
0.0
  0
SPLINE
  5
16a
100
AcDbEntity
  8
Calque_1
 62
7
100
AcDbSpline
 70
0
 71
3
 72
10
 73
6
 74
4
 40
0.000000
 40
0.000000
 40
0.000000
 40
0.000000
 40
0.739851
 40
1.455614
 40
2.147314
 40
2.147314
 40
2.147314
 40
2.147314
 10
48.020937
 20
14.032276
 30
0.0
 10
47.995931
 20
14.277622
 30
0.0
 10
47.946733
 20
14.760327
 30
0.0
 10
47.879593
 20
15.472953
 30
0.0
 10
47.839581
 20
15.940400
 30
0.0
 10
47.819917
 20
16.170127
 30
0.0
 11
48.020937
 21
14.032276
 31
0.0
 11
47.946871
 21
14.768410
 31
0.0
 11
47.879874
 21
15.481031
 31
0.0
 11
47.819917
 21
16.170127
 31
0.0
  0
SPLINE
  5
16b
100
AcDbEntity
  8
Calque_1
 62
7
100
AcDbSpline
 70
0
 71
3
 72
10
 73
6
 74
4
 40
0.000000
 40
0.000000
 40
0.000000
 40
0.000000
 40
0.331895
 40
0.660751
 40
0.986744
 40
0.986744
 40
0.986744
 40
0.986744
 10
47.819917
 20
16.170127
 30
0.0
 10
47.930024
 20
16.180935
 30
0.0
 10
48.149229
 20
16.202452
 30
0.0
 10
48.477541
 20
16.223742
 30
0.0
 10
48.695733
 20
16.230382
 30
0.0
 10
48.804352
 20
16.233687
 30
0.0
 11
47.819917
 21
16.170127
 31
0.0
 11
48.150399
 21
16.200719
 31
0.0
 11
48.478572
 21
16.221915
 31
0.0
 11
48.804352
 21
16.233687
 31
0.0
  0
LWPOLYLINE
  5
16c
100
AcDbEntity
  8
Calque_1
 62
7
100
AcDbPolyline
 90
1
 70
1
 10
33.225968
 20
16.339149
 30
0.0
  0
SPLINE
  5
16d
100
AcDbEntity
  8
Calque_1
 62
7
100
AcDbSpline
 70
0
 71
3
 72
10
 73
6
 74
4
 40
0.000000
 40
0.000000
 40
0.000000
 40
0.000000
 40
0.327102
 40
0.658758
 40
0.995065
 40
0.995065
 40
0.995065
 40
0.995065
 10
48.804352
 20
16.233687
 30
0.0
 10
48.913305
 20
16.237927
 30
0.0
 10
49.132727
 20
16.246467
 30
0.0
 10
49.464365
 20
16.253481
 30
0.0
 10
49.687020
 20
16.254410
 30
0.0
 10
49.799122
 20
16.254877
 30
0.0
 11
48.804352
 21
16.233687
 31
0.0
 11
49.131242
 21
16.245447
 31
0.0
 11
49.462823
 21
16.252517
 31
0.0
 11
49.799122
 21
16.254877
 31
0.0
  0
LWPOLYLINE
  5
16e
100
AcDbEntity
  8
Calque_1
 62
7
100
AcDbPolyline
 90
1
 70
1
 10
49.799122
 20
16.254877
 30
0.0
  0
SPLINE
  5
16f
100
AcDbEntity
  8
Calque_1
 62
7
100
AcDbSpline
 70
0
 71
3
 72
10
 73
6
 74
4
 40
0.000000
 40
0.000000
 40
0.000000
 40
0.000000
 40
0.096368
 40
0.188034
 40
0.275183
 40
0.275183
 40
0.275183
 40
0.275183
 10
21.614278
 20
16.138127
 30
0.0
 10
21.582155
 20
16.137915
 30
0.0
 10
21.519477
 20
16.137502
 30
0.0
 10
21.427784
 20
16.134242
 30
0.0
 10
21.368334
 20
16.129899
 30
0.0
 10
21.339359
 20
16.127782
 30
0.0
 11
21.614278
 21
16.138127
 31
0.0
 11
21.517916
 21
16.137015
 31
0.0
 11
21.426314
 21
16.133604
 31
0.0
 11
21.339359
 21
16.127782
 31
0.0
  0
LWPOLYLINE
  5
170
100
AcDbEntity
  8
Calque_1
 62
7
100
AcDbPolyline
 90
2
 70
0
 10
21.339359
 20
16.127782
 30
0.0
 10
21.074776
 20
16.127782
 30
0.0
  0
SPLINE
  5
171
100
AcDbEntity
  8
Calque_1
 62
7
100
AcDbSpline
 70
0
 71
3
 72
10
 73
6
 74
4
 40
0.000000
 40
0.000000
 40
0.000000
 40
0.000000
 40
0.668479
 40
1.327556
 40
1.979421
 40
1.979421
 40
1.979421
 40
1.979421
 10
21.074776
 20
16.127782
 30
0.0
 10
21.038868
 20
15.907828
 30
0.0
 10
20.967558
 20
15.471016
 30
0.0
 10
20.907045
 20
14.813203
 30
0.0
 10
20.898962
 20
14.376205
 30
0.0
 10
20.894942
 20
14.158909
 30
0.0
 11
21.074776
 21
16.127782
 31
0.0
 11
20.974844
 21
15.466814
 31
0.0
 11
20.914911
 21
14.810468
 31
0.0
 11
20.894942
 21
14.158909
 31
0.0
  0
SPLINE
  5
172
100
AcDbEntity
  8
Calque_1
 62
7
100
AcDbSpline
 70
0
 71
3
 72
10
 73
6
 74
4
 40
0.000000
 40
0.000000
 40
0.000000
 40
0.000000
 40
0.037011
 40
0.076145
 40
0.117413
 40
0.117413
 40
0.117413
 40
0.117413
 10
20.894942
 20
14.032303
 30
0.0
 10
20.897057
 20
14.020144
 30
0.0
 10
20.901407
 20
13.995128
 30
0.0
 10
20.904652
 20
13.956069
 30
0.0
 10
20.905065
 20
13.929269
 30
0.0
 10
20.905277
 20
13.915513
 30
0.0
 11
20.894942
 21
14.032303
 31
0.0
 11
20.900755
 21
13.995751
 31
0.0
 11
20.904164
 21
13.956766
 31
0.0
 11
20.905277
 21
13.915513
 31
0.0
  0
SPLINE
  5
173
100
AcDbEntity
  8
Calque_1
 62
7
100
AcDbSpline
 70
0
 71
3
 72
10
 73
6
 74
4
 40
0.000000
 40
0.000000
 40
0.000000
 40
0.000000
 40
0.215618
 40
0.438169
 40
0.667589
 40
0.667589
 40
0.667589
 40
0.667589
 10
20.905277
 20
13.915513
 30
0.0
 10
20.977025
 20
13.919769
 30
0.0
 10
21.122830
 20
13.928419
 30
0.0
 10
21.345289
 20
13.935339
 30
0.0
 10
21.495946
 20
13.936246
 30
0.0
 10
21.572419
 20
13.936706
 30
0.0
 11
20.905277
 21
13.915513
 31
0.0
 11
21.120573
 21
13.927287
 31
0.0
 11
21.343012
 21
13.934352
 31
0.0
 11
21.572419
 21
13.936706
 31
0.0
  0
SPLINE
  5
174
100
AcDbEntity
  8
Calque_1
 62
7
100
AcDbSpline
 70
0
 71
3
 72
13
 73
9
 74
7
 40
0.000000
 40
0.000000
 40
0.000000
 40
0.000000
 40
0.238765
 40
0.475115
 40
0.709106
 40
1.205285
 40
1.635668
 40
2.000560
 40
2.000560
 40
2.000560
 40
2.000560
 10
21.572419
 20
13.936706
 30
0.0
 10
21.651980
 20
13.938840
 30
0.0
 10
21.810295
 20
13.943085
 30
0.0
 10
22.046642
 20
13.946702
 30
0.0
 10
22.368817
 20
13.948309
 30
0.0
 10
22.755660
 20
13.945308
 30
0.0
 10
23.186107
 20
13.936200
 30
0.0
 10
23.450834
 20
13.922021
 30
0.0
 10
23.572297
 20
13.915516
 30
0.0
 11
21.572419
 21
13.936706
 31
0.0
 11
21.811111
 21
13.942647
 31
0.0
 11
22.047432
 21
13.946306
 31
0.0
 11
22.281420
 21
13.947554
 31
0.0
 11
22.777586
 21
13.943951
 31
0.0
 11
23.207835
 21
13.933228
 31
0.0
 11
23.572297
 21
13.915516
 31
0.0
  0
SPLINE
  5
175
100
AcDbEntity
  8
Calque_1
 62
7
100
AcDbSpline
 70
0
 71
3
 72
10
 73
6
 74
4
 40
0.000000
 40
0.000000
 40
0.000000
 40
0.000000
 40
0.314677
 40
0.581576
 40
0.802342
 40
0.802342
 40
0.802342
 40
0.802342
 10
23.572297
 20
13.915516
 30
0.0
 10
23.677012
 20
13.909690
 30
0.0
 10
23.870543
 20
13.898924
 30
0.0
 10
24.136723
 20
13.867203
 30
0.0
 10
24.294584
 20
13.827892
 30
0.0
 10
24.366047
 20
13.810095
 30
0.0
 11
23.572297
 21
13.915516
 31
0.0
 11
23.886269
 21
13.894460
 31
0.0
 11
24.150853
 21
13.859379
 31
0.0
 11
24.366047
 21
13.810095
 31
0.0
  0
SPLINE
  5
176
100
AcDbEntity
  8
Calque_1
 62
7
100
AcDbSpline
 70
0
 71
3
 72
19
 73
15
 74
13
 40
0.000000
 40
0.000000
 40
0.000000
 40
0.000000
 40
0.186045
 40
0.341165
 40
0.474361
 40
0.607551
 40
0.750550
 40
0.909860
 40
0.967508
 40
1.027856
 40
1.091259
 40
1.148222
 40
1.205510
 40
1.263344
 40
1.263344
 40
1.263344
 40
1.263344
 10
24.366047
 20
13.810095
 30
0.0
 10
24.425690
 20
13.792839
 30
0.0
 10
24.535061
 20
13.761195
 30
0.0
 10
24.675738
 20
13.684069
 30
0.0
 10
24.773181
 20
13.580265
 30
0.0
 10
24.839694
 20
13.459598
 30
0.0
 10
24.877528
 20
13.318295
 30
0.0
 10
24.886821
 20
13.197997
 30
0.0
 10
24.883154
 20
13.105605
 30
0.0
 10
24.876452
 20
13.045403
 30
0.0
 10
24.862966
 20
12.986604
 30
0.0
 10
24.856117
 20
12.927725
 30
0.0
 10
24.844980
 20
12.871414
 30
0.0
 10
24.836108
 20
12.834081
 30
0.0
 10
24.831651
 20
12.815326
 30
0.0
 11
24.366047
 21
13.810095
 31
0.0
 11
24.542538
 21
13.751241
 31
0.0
 11
24.676783
 21
13.673521
 31
0.0
 11
24.768607
 21
13.577034
 31
0.0
 11
24.833245
 21
13.460581
 31
0.0
 11
24.871981
 21
13.322929
 31
0.0
 11
24.884878
 21
13.164142
 31
0.0
 11
24.882522
 21
13.106541
 31
0.0
 11
24.875456
 21
13.046608
 31
0.0
 11
24.863691
 21
12.984307
 31
0.0
 11
24.855387
 21
12.927952
 31
0.0
 11
24.844664
 21
12.871677
 31
0.0
 11
24.831651
 21
12.815326
 31
0.0
  0
SPLINE
  5
177
100
AcDbEntity
  8
Calque_1
 62
7
100
AcDbSpline
 70
0
 71
3
 72
28
 73
24
 74
22
 40
0.000000
 40
0.000000
 40
0.000000
 40
0.000000
 40
0.158784
 40
0.309644
 40
0.459826
 40
0.617074
 40
0.778175
 40
0.946449
 40
1.323861
 40
1.709070
 40
2.102327
 40
2.482612
 40
2.828973
 40
3.141844
 40
3.660310
 40
4.104331
 40
4.507688
 40
4.906941
 40
5.331845
 40
5.811377
 40
6.266467
 40
6.683434
 40
7.103000
 40
7.103000
 40
7.103000
 40
7.103000
 10
24.831651
 20
12.815326
 30
0.0
 10
24.810973
 20
12.864210
 30
0.0
 10
24.770650
 20
12.959538
 30
0.0
 10
24.676279
 20
13.082847
 30
0.0
 10
24.556564
 20
13.178956
 30
0.0
 10
24.423464
 20
13.261361
 30
0.0
 10
24.273571
 20
13.325262
 30
0.0
 10
24.045017
 20
13.384372
 30
0.0
 10
23.738063
 20
13.431371
 30
0.0
 10
23.357337
 20
13.490221
 30
0.0
 10
22.973679
 20
13.535662
 30
0.0
 10
22.602036
 20
13.571126
 30
0.0
 10
22.256084
 20
13.592335
 30
0.0
 10
21.863753
 20
13.604289
 30
0.0
 10
21.437190
 20
13.574125
 30
0.0
 10
20.997873
 20
13.432284
 30
0.0
 10
20.657459
 20
13.180593
 30
0.0
 10
20.421537
 20
12.838156
 30
0.0
 10
20.285035
 20
12.420674
 30
0.0
 10
20.244716
 20
11.966067
 30
0.0
 10
20.291684
 20
11.514761
 30
0.0
 10
20.463113
 20
11.107430
 30
0.0
 10
20.666038
 20
10.912632
 30
0.0
 10
20.767817
 20
10.814930
 30
0.0
 11
24.831651
 21
12.815326
 31
0.0
 11
24.763510
 21
12.958746
 31
0.0
 11
24.671907
 21
13.078610
 31
0.0
 11
24.556733
 21
13.174992
 31
0.0
 11
24.422699
 21
13.257222
 31
0.0
 11
24.274572
 21
13.320563
 31
0.0
 11
24.112315
 21
13.365161
 31
0.0
 11
23.740701
 21
13.431057
 31
0.0
 11
23.359661
 21
13.487581
 31
0.0
 11
22.969233
 21
13.534661
 31
0.0
 11
22.590590
 21
13.569959
 31
0.0
 11
22.244878
 21
13.591153
 31
0.0
 11
21.932087
 21
13.598222
 31
0.0
 11
21.415871
 21
13.549967
 31
0.0
 11
20.996095
 21
13.405249
 31
0.0
 11
20.672732
 21
13.164142
 31
0.0
 11
20.443389
 21
12.837331
 31
0.0
 11
20.305736
 21
12.435342
 31
0.0
 11
20.259837
 21
11.958012
 31
0.0
 11
20.316276
 21
11.506435
 31
0.0
 11
20.485600
 21
11.125396
 31
0.0
 11
20.767817
 21
10.814930
 31
0.0
  0
SPLINE
  5
178
100
AcDbEntity
  8
Calque_1
 62
7
100
AcDbSpline
 70
0
 71
3
 72
10
 73
6
 74
4
 40
0.000000
 40
0.000000
 40
0.000000
 40
0.000000
 40
0.235027
 40
0.482873
 40
0.747588
 40
0.747588
 40
0.747588
 40
0.747588
 10
20.767817
 20
10.814930
 30
0.0
 10
20.830110
 20
10.767252
 30
0.0
 10
20.958094
 20
10.669296
 30
0.0
 10
21.180111
 20
10.553118
 30
0.0
 10
21.341010
 20
10.495404
 30
0.0
 10
21.424107
 20
10.465598
 30
0.0
 11
20.767817
 21
10.814930
 31
0.0
 11
20.958349
 21
10.677325
 31
0.0
 11
21.177131
 21
10.560869
 31
0.0
 11
21.424107
 21
10.465598
 31
0.0
  0
SPLINE
  5
179
100
AcDbEntity
  8
Calque_1
 62
7
100
AcDbSpline
 70
0
 71
3
 72
10
 73
6
 74
4
 40
0.000000
 40
0.000000
 40
0.000000
 40
0.000000
 40
0.274909
 40
0.541888
 40
0.801650
 40
0.801650
 40
0.801650
 40
0.801650
 10
21.424107
 20
10.465598
 30
0.0
 10
21.512459
 20
10.441253
 30
0.0
 10
21.686615
 20
10.393265
 30
0.0
 10
21.947895
 20
10.336284
 30
0.0
 10
22.121428
 20
10.309370
 30
0.0
 10
22.207005
 20
10.296098
 30
0.0
 11
21.424107
 21
10.465598
 31
0.0
 11
21.689797
 21
10.395000
 31
0.0
 11
21.950723
 21
10.338476
 31
0.0
 11
22.207005
 21
10.296098
 31
0.0
  0
SPLINE
  5
17a
100
AcDbEntity
  8
Calque_1
 62
7
100
AcDbSpline
 70
0
 71
3
 72
10
 73
6
 74
4
 40
0.000000
 40
0.000000
 40
0.000000
 40
0.000000
 40
0.246224
 40
0.470020
 40
0.671617
 40
0.671617
 40
0.671617
 40
0.671617
 10
22.207005
 20
10.296098
 30
0.0
 10
22.288089
 20
10.283372
 30
0.0
 10
22.442871
 20
10.259078
 30
0.0
 10
22.665429
 20
10.233613
 30
0.0
 10
22.807038
 20
10.225871
 30
0.0
 10
22.874148
 20
10.222203
 30
0.0
 11
22.207005
 21
10.296098
 31
0.0
 11
22.450524
 21
10.259695
 31
0.0
 11
22.672963
 21
10.235093
 31
0.0
 11
22.874148
 21
10.222203
 31
0.0
  0
SPLINE
  5
17b
100
AcDbEntity
  8
Calque_1
 62
7
100
AcDbSpline
 70
0
 71
3
 72
13
 73
9
 74
7
 40
0.000000
 40
0.000000
 40
0.000000
 40
0.000000
 40
0.165002
 40
0.278022
 40
0.339168
 40
0.698073
 40
0.986466
 40
1.208922
 40
1.208922
 40
1.208922
 40
1.208922
 10
22.874148
 20
10.222203
 30
0.0
 10
22.929005
 20
10.218233
 30
0.0
 10
23.021438
 20
10.211545
 30
0.0
 10
23.134233
 20
10.203850
 30
0.0
 10
23.311836
 20
10.196779
 30
0.0
 10
23.547676
 20
10.209717
 30
0.0
 10
23.837884
 20
10.238287
 30
0.0
 10
23.999544
 20
10.293317
 30
0.0
 10
24.069941
 20
10.317281
 30
0.0
 11
22.874148
 21
10.222203
 31
0.0
 11
23.038730
 21
10.210429
 31
0.0
 11
23.151529
 21
10.203364
 31
0.0
 11
23.212629
 21
10.201009
 31
0.0
 11
23.571302
 21
10.213907
 31
0.0
 11
23.857082
 21
10.252643
 31
0.0
 11
24.069941
 21
10.317281
 31
0.0
  0
SPLINE
  5
17c
100
AcDbEntity
  8
Calque_1
 62
7
100
AcDbSpline
 70
0
 71
3
 72
10
 73
6
 74
4
 40
0.000000
 40
0.000000
 40
0.000000
 40
0.000000
 40
0.193113
 40
0.388040
 40
0.595887
 40
0.595887
 40
0.595887
 40
0.595887
 10
24.069941
 20
10.317281
 30
0.0
 10
24.128487
 20
10.344669
 30
0.0
 10
24.246129
 20
10.399703
 30
0.0
 10
24.395247
 20
10.536382
 30
0.0
 10
24.466997
 20
10.650235
 30
0.0
 10
24.504023
 20
10.708988
 30
0.0
 11
24.069941
 21
10.317281
 31
0.0
 11
24.240493
 21
10.407859
 31
0.0
 11
24.385211
 21
10.538447
 31
0.0
 11
24.504023
 21
10.708988
 31
0.0
  0
SPLINE
  5
17d
100
AcDbEntity
  8
Calque_1
 62
7
100
AcDbSpline
 70
0
 71
3
 72
13
 73
9
 74
7
 40
0.000000
 40
0.000000
 40
0.000000
 40
0.000000
 40
0.204230
 40
0.401152
 40
0.601009
 40
0.820511
 40
1.075117
 40
1.370658
 40
1.370658
 40
1.370658
 40
1.370658
 10
24.504023
 20
10.708988
 30
0.0
 10
24.537026
 20
10.649131
 30
0.0
 10
24.601851
 20
10.531560
 30
0.0
 10
24.744655
 20
10.387552
 30
0.0
 10
24.918720
 20
10.275583
 30
0.0
 10
25.131927
 20
10.199874
 30
0.0
 10
25.385664
 20
10.155352
 30
0.0
 10
25.569187
 20
10.150764
 30
0.0
 10
25.667776
 20
10.148299
 30
0.0
 11
24.504023
 21
10.708988
 31
0.0
 11
24.610935
 21
10.534978
 31
0.0
 11
24.748340
 21
10.393917
 31
0.0
 11
24.916401
 21
10.285758
 31
0.0
 11
25.122177
 21
10.209355
 31
0.0
 11
25.372629
 21
10.163554
 31
0.0
 11
25.667776
 21
10.148299
 31
0.0
  0
SPLINE
  5
17e
100
AcDbEntity
  8
Calque_1
 62
7
100
AcDbSpline
 70
0
 71
3
 72
19
 73
15
 74
13
 40
0.000000
 40
0.000000
 40
0.000000
 40
0.000000
 40
0.279233
 40
0.617818
 40
1.021413
 40
1.495440
 40
1.986669
 40
2.495697
 40
3.008193
 40
3.509895
 40
4.001501
 40
4.578368
 40
5.067306
 40
5.496938
 40
5.496938
 40
5.496938
 40
5.496938
 10
25.667776
 20
10.148299
 30
0.0
 10
25.637514
 20
10.236543
 30
0.0
 10
25.570559
 20
10.431788
 30
0.0
 10
25.529197
 20
10.771750
 30
0.0
 10
25.515523
 20
11.176790
 30
0.0
 10
25.527174
 20
11.633202
 30
0.0
 10
25.553961
 20
12.123983
 30
0.0
 10
25.604340
 20
12.625777
 30
0.0
 10
25.655004
 20
13.131080
 30
0.0
 10
25.681308
 20
13.632362
 30
0.0
 10
25.696657
 20
14.155973
 30
0.0
 10
25.664646
 20
14.674246
 30
0.0
 10
25.539843
 20
15.166751
 30
0.0
 10
25.360478
 20
15.417683
 30
0.0
 10
25.276585
 20
15.535049
 30
0.0
 11
25.667776
 21
10.148299
 31
0.0
 11
25.585557
 21
10.415154
 31
0.0
 11
25.536348
 21
10.750143
 31
0.0
 11
25.519981
 21
11.153406
 31
0.0
 11
25.529276
 21
11.627342
 31
0.0
 11
25.557288
 21
12.117772
 31
0.0
 11
25.604214
 21
12.624632
 31
0.0
 11
25.651273
 21
13.134963
 31
0.0
 11
25.679535
 21
13.635868
 31
0.0
 11
25.688963
 21
14.127384
 31
0.0
 11
25.643199
 21
14.702433
 31
0.0
 11
25.505794
 21
15.171667
 31
0.0
 11
25.276585
 21
15.535049
 31
0.0
  0
SPLINE
  5
17f
100
AcDbEntity
  8
Calque_1
 62
7
100
AcDbSpline
 70
0
 71
3
 72
10
 73
6
 74
4
 40
0.000000
 40
0.000000
 40
0.000000
 40
0.000000
 40
0.411477
 40
0.855734
 40
1.365560
 40
1.365560
 40
1.365560
 40
1.365560
 10
25.276585
 20
15.535049
 30
0.0
 10
25.176434
 20
15.630259
 30
0.0
 10
24.968153
 20
15.828263
 30
0.0
 10
24.534073
 20
15.998509
 30
0.0
 10
24.217772
 20
16.034261
 30
0.0
 10
24.048753
 20
16.053365
 30
0.0
 11
25.276585
 21
15.535049
 31
0.0
 11
24.961394
 21
15.799564
 31
0.0
 11
24.552093
 21
15.972296
 31
0.0
 11
24.048753
 21
16.053365
 31
0.0
  0
LWPOLYLINE
  5
180
100
AcDbEntity
  8
Calque_1
 62
7
100
AcDbPolyline
 90
2
 70
0
 10
20.894942
 20
14.158909
 30
0.0
 10
20.894942
 20
14.032303
 30
0.0
  0
SPLINE
  5
181
100
AcDbEntity
  8
Calque_1
 62
7
100
AcDbSpline
 70
0
 71
3
 72
13
 73
9
 74
7
 40
0.000000
 40
0.000000
 40
0.000000
 40
0.000000
 40
0.315533
 40
0.682873
 40
1.101994
 40
1.542211
 40
1.986964
 40
2.436251
 40
2.436251
 40
2.436251
 40
2.436251
 10
24.048753
 20
16.053365
 30
0.0
 10
23.943701
 20
16.058497
 30
0.0
 10
23.716348
 20
16.069605
 30
0.0
 10
23.349441
 20
16.087274
 30
0.0
 10
22.941048
 20
16.107475
 30
0.0
 10
22.506715
 20
16.125531
 30
0.0
 10
22.062055
 20
16.136103
 30
0.0
 10
21.764040
 20
16.137441
 30
0.0
 10
21.614277
 20
16.138114
 30
0.0
 11
24.048753
 21
16.053365
 31
0.0
 11
23.733594
 21
16.068728
 31
0.0
 11
23.366686
 21
16.086518
 31
0.0
 11
22.948045
 21
16.106591
 31
0.0
 11
22.508179
 21
16.124171
 31
0.0
 11
22.063550
 21
16.134645
 31
0.0
 11
21.614277
 21
16.138114
 31
0.0
  0
SPLINE
  5
182
100
AcDbEntity
  8
Calque_1
 62
7
100
AcDbSpline
 70
0
 71
3
 72
13
 73
9
 74
7
 40
0.000000
 40
0.000000
 40
0.000000
 40
0.000000
 40
0.132989
 40
0.306286
 40
0.519918
 40
0.758432
 40
1.006475
 40
1.264179
 40
1.264179
 40
1.264179
 40
1.264179
 10
21.603943
 20
12.719732
 30
0.0
 10
21.648270
 20
12.718883
 30
0.0
 10
21.750358
 20
12.716929
 30
0.0
 10
21.923327
 20
12.705319
 30
0.0
 10
22.131073
 20
12.687918
 30
0.0
 10
22.363412
 20
12.665653
 30
0.0
 10
22.610257
 20
12.640867
 30
0.0
 10
22.777884
 20
12.622933
 30
0.0
 10
22.863298
 20
12.613795
 30
0.0
 11
21.603943
 21
12.719732
 31
0.0
 11
21.736887
 21
12.716265
 31
0.0
 11
21.909868
 21
12.705794
 31
0.0
 11
22.122775
 21
12.688209
 31
0.0
 11
22.360231
 21
12.665780
 31
0.0
 11
22.607026
 21
12.640926
 31
0.0
 11
22.863298
 21
12.613795
 31
0.0
  0
SPLINE
  5
183
100
AcDbEntity
  8
Calque_1
 62
7
100
AcDbSpline
 70
0
 71
3
 72
10
 73
6
 74
4
 40
0.000000
 40
0.000000
 40
0.000000
 40
0.000000
 40
0.260926
 40
0.519963
 40
0.777235
 40
0.777235
 40
0.777235
 40
0.777235
 10
22.863298
 20
12.613795
 30
0.0
 10
22.949952
 20
12.606309
 30
0.0
 10
23.122632
 20
12.591391
 30
0.0
 10
23.380233
 20
12.563466
 30
0.0
 10
23.550846
 20
12.540838
 30
0.0
 10
23.635860
 20
12.529562
 30
0.0
 11
22.863298
 21
12.613795
 31
0.0
 11
23.123172
 21
12.590389
 31
0.0
 11
23.380690
 21
12.562377
 31
0.0
 11
23.635860
 21
12.529562
 31
0.0
  0
SPLINE
  5
184
100
AcDbEntity
  8
Calque_1
 62
7
100
AcDbSpline
 70
0
 71
3
 72
25
 73
21
 74
19
 40
0.000000
 40
0.000000
 40
0.000000
 40
0.000000
 40
0.240207
 40
0.449746
 40
0.628679
 40
0.719518
 40
0.800079
 40
0.883286
 40
0.979578
 40
1.086798
 40
1.206837
 40
1.333019
 40
1.432382
 40
1.512370
 40
1.583145
 40
1.661188
 40
1.752094
 40
1.928520
 40
2.133293
 40
2.366445
 40
2.366445
 40
2.366445
 40
2.366445
 10
23.635860
 20
12.529562
 30
0.0
 10
23.715441
 20
12.520803
 30
0.0
 10
23.864441
 20
12.504402
 30
0.0
 10
24.072373
 20
12.477297
 30
0.0
 10
24.231302
 20
12.463414
 30
0.0
 10
24.346283
 20
12.436398
 30
0.0
 10
24.416744
 20
12.383116
 30
0.0
 10
24.454306
 20
12.303178
 30
0.0
 10
24.483688
 20
12.212339
 30
0.0
 10
24.500574
 20
12.105330
 30
0.0
 10
24.506164
 20
11.987481
 30
0.0
 10
24.499570
 20
11.872330
 30
0.0
 10
24.474428
 20
11.771906
 30
0.0
 10
24.424315
 20
11.702943
 30
0.0
 10
24.361254
 20
11.658033
 30
0.0
 10
24.283857
 20
11.633777
 30
0.0
 10
24.168459
 20
11.627371
 30
0.0
 10
24.011232
 20
11.632649
 30
0.0
 10
23.806511
 20
11.638798
 30
0.0
 10
23.660753
 20
11.646806
 30
0.0
 10
23.583150
 20
11.651069
 30
0.0
 11
23.635860
 21
12.529562
 31
0.0
 11
23.874531
 21
12.502431
 31
0.0
 11
24.082590
 21
12.477577
 31
0.0
 11
24.260112
 21
12.455148
 31
0.0
 11
24.347179
 21
12.429243
 31
0.0
 11
24.410768
 21
12.379782
 31
0.0
 11
24.450798
 21
12.306836
 31
0.0
 11
24.480277
 21
12.215167
 31
0.0
 11
24.498065
 21
12.109433
 31
0.0
 11
24.504025
 21
11.989542
 31
0.0
 11
24.494596
 21
11.863714
 31
0.0
 11
24.466335
 21
11.768454
 31
0.0
 11
24.419275
 21
11.703774
 31
0.0
 11
24.361667
 21
11.662661
 31
0.0
 11
24.287604
 21
11.638057
 31
0.0
 11
24.197067
 21
11.629876
 31
0.0
 11
24.020656
 21
11.632236
 31
0.0
 11
23.816006
 21
11.639307
 31
0.0
 11
23.583150
 21
11.651069
 31
0.0
  0
SPLINE
  5
185
100
AcDbEntity
  8
Calque_1
 62
7
100
AcDbSpline
 70
0
 71
3
 72
10
 73
6
 74
4
 40
0.000000
 40
0.000000
 40
0.000000
 40
0.000000
 40
0.241977
 40
0.486285
 40
0.732949
 40
0.732949
 40
0.732949
 40
0.732949
 10
23.583150
 20
11.651069
 30
0.0
 10
23.502802
 20
11.658142
 30
0.0
 10
23.341331
 20
11.672355
 30
0.0
 10
23.097937
 20
11.693560
 30
0.0
 10
22.934881
 20
11.707584
 30
0.0
 10
22.852963
 20
11.714630
 30
0.0
 11
23.583150
 21
11.651069
 31
0.0
 11
23.342102
 21
11.672251
 31
0.0
 11
23.098715
 21
11.693447
 31
0.0
 11
22.852963
 21
11.714630
 31
0.0
  0
LWPOLYLINE
  5
186
100
AcDbEntity
  8
Calque_1
 62
7
100
AcDbPolyline
 90
1
 70
1
 10
21.614277
 20
16.138114
 30
0.0
  0
SPLINE
  5
187
100
AcDbEntity
  8
Calque_1
 62
7
100
AcDbSpline
 70
0
 71
3
 72
19
 73
15
 74
13
 40
0.000000
 40
0.000000
 40
0.000000
 40
0.000000
 40
0.245146
 40
0.483369
 40
0.714503
 40
0.918569
 40
1.089706
 40
1.227940
 40
1.406690
 40
1.553657
 40
1.714802
 40
2.010362
 40
2.209118
 40
2.372846
 40
2.372846
 40
2.372846
 40
2.372846
 10
22.852963
 20
11.714630
 30
0.0
 10
22.771779
 20
11.723944
 30
0.0
 10
22.611705
 20
11.742309
 30
0.0
 10
22.375209
 20
11.770409
 30
0.0
 10
22.152314
 20
11.797245
 30
0.0
 10
21.952070
 20
11.824070
 30
0.0
 10
21.782486
 20
11.848944
 30
0.0
 10
21.622551
 20
11.874188
 30
0.0
 10
21.467761
 20
11.907293
 30
0.0
 10
21.344649
 20
12.030145
 30
0.0
 10
21.319183
 20
12.238280
 30
0.0
 10
21.339622
 20
12.448525
 30
0.0
 10
21.423048
 20
12.678126
 30
0.0
 10
21.547659
 20
12.706790
 30
0.0
 10
21.603943
 20
12.719737
 30
0.0
 11
22.852963
 21
11.714630
 31
0.0
 11
22.609433
 21
11.742738
 31
0.0
 11
22.372863
 21
11.770751
 31
0.0
 11
22.143445
 21
11.798863
 31
0.0
 11
21.941191
 21
11.825994
 31
0.0
 11
21.771868
 21
11.850848
 31
0.0
 11
21.635466
 21
11.873277
 31
0.0
 11
21.465080
 21
11.927314
 31
0.0
 11
21.363003
 21
12.033048
 31
0.0
 11
21.329025
 21
12.190570
 31
0.0
 11
21.359534
 21
12.484551
 31
0.0
 11
21.451137
 21
12.660940
 31
0.0
 11
21.603943
 21
12.719737
 31
0.0
  0
SPLINE
  5
188
100
AcDbEntity
  8
Calque_1
 62
7
100
AcDbSpline
 70
0
 71
3
 72
13
 73
9
 74
7
 40
0.000000
 40
0.000000
 40
0.000000
 40
0.000000
 40
0.343373
 40
0.696170
 40
1.058403
 40
1.417090
 40
1.773430
 40
2.127553
 40
2.127553
 40
2.127553
 40
2.127553
 10
30.597192
 20
16.106605
 30
0.0
 10
30.482734
 20
16.106356
 30
0.0
 10
30.250677
 20
16.105851
 30
0.0
 10
29.897894
 20
16.101963
 30
0.0
 10
29.540033
 20
16.096192
 30
0.0
 10
29.181039
 20
16.087928
 30
0.0
 10
28.824800
 20
16.077650
 30
0.0
 10
28.588147
 20
16.068691
 30
0.0
 10
28.470190
 20
16.064225
 30
0.0
 11
30.597192
 21
16.106605
 31
0.0
 11
30.253821
 21
16.105359
 31
0.0
 11
29.901044
 21
16.101701
 31
0.0
 11
29.538859
 21
16.095755
 31
0.0
 11
29.180266
 21
16.087561
 31
0.0
 11
28.824080
 21
16.077093
 31
0.0
 11
28.470190
 21
16.064225
 31
0.0
  0
SPLINE
  5
189
100
AcDbEntity
  8
Calque_1
 62
7
100
AcDbSpline
 70
0
 71
3
 72
10
 73
6
 74
4
 40
0.000000
 40
0.000000
 40
0.000000
 40
0.000000
 40
0.350547
 40
0.696548
 40
1.038080
 40
1.038080
 40
1.038080
 40
1.038080
 10
28.470190
 20
16.064225
 30
0.0
 10
28.353374
 20
16.061402
 30
0.0
 10
28.121257
 20
16.055792
 30
0.0
 10
27.775493
 20
16.041732
 30
0.0
 10
27.546698
 20
16.028452
 30
0.0
 10
27.433044
 20
16.021855
 30
0.0
 11
28.470190
 21
16.064225
 31
0.0
 11
28.119770
 21
16.054787
 31
0.0
 11
27.774058
 21
16.040666
 31
0.0
 11
27.433044
 21
16.021855
 31
0.0
  0
LWPOLYLINE
  5
18a
100
AcDbEntity
  8
Calque_1
 62
7
100
AcDbPolyline
 90
1
 70
1
 10
21.603943
 20
12.719737
 30
0.0
  0
SPLINE
  5
18b
100
AcDbEntity
  8
Calque_1
 62
7
100
AcDbSpline
 70
0
 71
3
 72
10
 73
6
 74
4
 40
0.000000
 40
0.000000
 40
0.000000
 40
0.000000
 40
0.329664
 40
0.640618
 40
0.932692
 40
0.932692
 40
0.932692
 40
0.932692
 10
27.433044
 20
16.021855
 30
0.0
 10
27.323255
 20
16.017204
 30
0.0
 10
27.109907
 20
16.008165
 30
0.0
 10
26.799328
 20
15.994077
 30
0.0
 10
26.598559
 20
15.984240
 30
0.0
 10
26.501318
 20
15.979475
 30
0.0
 11
27.433044
 21
16.021855
 31
0.0
 11
27.103683
 21
16.007732
 31
0.0
 11
26.793050
 21
15.993598
 31
0.0
 11
26.501318
 21
15.979475
 31
0.0
  0
SPLINE
  5
18c
100
AcDbEntity
  8
Calque_1
 62
7
100
AcDbSpline
 70
0
 71
3
 72
10
 73
6
 74
4
 40
0.000000
 40
0.000000
 40
0.000000
 40
0.000000
 40
0.210998
 40
0.419795
 40
0.626503
 40
0.626503
 40
0.626503
 40
0.626503
 10
27.041337
 20
10.148307
 30
0.0
 10
27.111498
 20
10.153221
 30
0.0
 10
27.251089
 20
10.162997
 30
0.0
 10
27.459200
 20
10.180487
 30
0.0
 10
27.597023
 20
10.194197
 30
0.0
 10
27.665588
 20
10.201017
 30
0.0
 11
27.041337
 21
10.148307
 31
0.0
 11
27.251785
 21
10.163539
 31
0.0
 11
27.459844
 21
10.181078
 31
0.0
 11
27.665588
 21
10.201017
 31
0.0
  0
SPLINE
  5
18d
100
AcDbEntity
  8
Calque_1
 62
7
100
AcDbSpline
 70
0
 71
3
 72
10
 73
6
 74
4
 40
0.000000
 40
0.000000
 40
0.000000
 40
0.000000
 40
0.210074
 40
0.416199
 40
0.618626
 40
0.618626
 40
0.618626
 40
0.618626
 10
27.665588
 20
10.201017
 30
0.0
 10
27.735411
 20
10.206386
 30
0.0
 10
27.873744
 20
10.217022
 30
0.0
 10
28.078589
 20
10.241491
 30
0.0
 10
28.212938
 20
10.263842
 30
0.0
 10
28.279504
 20
10.274917
 30
0.0
 11
27.665588
 21
10.201017
 31
0.0
 11
27.874925
 21
10.218607
 31
0.0
 11
28.079576
 21
10.243213
 31
0.0
 11
28.279504
 21
10.274917
 31
0.0
  0
LWPOLYLINE
  5
18e
100
AcDbEntity
  8
Calque_1
 62
7
100
AcDbPolyline
 90
2
 70
0
 10
26.501318
 20
15.979475
 30
0.0
 10
27.041337
 20
10.148307
 30
0.0
  0
SPLINE
  5
18f
100
AcDbEntity
  8
Calque_1
 62
7
100
AcDbSpline
 70
0
 71
3
 72
13
 73
9
 74
7
 40
0.000000
 40
0.000000
 40
0.000000
 40
0.000000
 40
0.175747
 40
0.349044
 40
0.519814
 40
0.690358
 40
0.863128
 40
1.038277
 40
1.038277
 40
1.038277
 40
1.038277
 10
28.279504
 20
10.274917
 30
0.0
 10
28.275051
 20
10.333331
 30
0.0
 10
28.266208
 20
10.449344
 30
0.0
 10
28.255868
 20
10.622313
 30
0.0
 10
28.247614
 20
10.793655
 30
0.0
 10
28.241618
 20
10.964916
 30
0.0
 10
28.237844
 20
11.137705
 30
0.0
 10
28.237372
 20
11.253679
 30
0.0
 10
28.237134
 20
11.312062
 30
0.0
 11
28.279504
 21
10.274917
 31
0.0
 11
28.266628
 21
10.450192
 31
0.0
 11
28.256154
 21
10.623172
 31
0.0
 11
28.247984
 21
10.793746
 31
0.0
 11
28.242016
 21
10.964186
 31
0.0
 11
28.238369
 21
11.136918
 31
0.0
 11
28.237134
 21
11.312062
 31
0.0
  0
SPLINE
  5
190
100
AcDbEntity
  8
Calque_1
 62
7
100
AcDbSpline
 70
0
 71
3
 72
10
 73
6
 74
4
 40
0.000000
 40
0.000000
 40
0.000000
 40
0.000000
 40
0.104838
 40
0.207228
 40
0.307202
 40
0.307202
 40
0.307202
 40
0.307202
 10
28.237134
 20
11.608684
 30
0.0
 10
28.239269
 20
11.643565
 30
0.0
 10
28.243489
 20
11.712514
 30
0.0
 10
28.247217
 20
11.814863
 30
0.0
 10
28.247730
 20
11.882318
 30
0.0
 10
28.247984
 20
11.915643
 30
0.0
 11
28.237134
 21
11.608684
 31
0.0
 11
28.243103
 21
11.713352
 31
0.0
 11
28.246749
 21
11.815677
 31
0.0
 11
28.247984
 21
11.915643
 31
0.0
  0
SPLINE
  5
191
100
AcDbEntity
  8
Calque_1
 62
7
100
AcDbSpline
 70
0
 71
3
 72
13
 73
9
 74
7
 40
0.000000
 40
0.000000
 40
0.000000
 40
0.000000
 40
0.119041
 40
0.232722
 40
0.341269
 40
0.445490
 40
0.544712
 40
0.639082
 40
0.639082
 40
0.639082
 40
0.639082
 10
28.247984
 20
11.915643
 30
0.0
 10
28.287129
 20
11.922137
 30
0.0
 10
28.363655
 20
11.934834
 30
0.0
 10
28.476497
 20
11.949711
 30
0.0
 10
28.585186
 20
11.956393
 30
0.0
 10
28.688152
 20
11.971406
 30
0.0
 10
28.786920
 20
11.981499
 30
0.0
 10
28.851225
 20
11.986900
 30
0.0
 10
28.882571
 20
11.989533
 30
0.0
 11
28.247984
 21
11.915643
 31
0.0
 11
28.365529
 21
11.934459
 31
0.0
 11
28.478328
 21
11.948590
 31
0.0
 11
28.586465
 21
11.958013
 31
0.0
 11
28.689888
 21
11.970887
 31
0.0
 11
28.788556
 21
11.981359
 31
0.0
 11
28.882571
 21
11.989533
 31
0.0
  0
SPLINE
  5
192
100
AcDbEntity
  8
Calque_1
 62
7
100
AcDbSpline
 70
0
 71
3
 72
13
 73
9
 74
7
 40
0.000000
 40
0.000000
 40
0.000000
 40
0.000000
 40
0.370512
 40
0.742292
 40
1.115481
 40
1.487590
 40
1.856080
 40
2.221027
 40
2.221027
 40
2.221027
 40
2.221027
 10
28.882571
 20
11.989533
 30
0.0
 10
28.952727
 20
11.887886
 30
0.0
 10
29.093278
 20
11.684243
 30
0.0
 10
29.297673
 20
11.373599
 30
0.0
 10
29.497201
 20
11.059192
 30
0.0
 10
29.690735
 20
10.742348
 30
0.0
 10
29.878259
 20
10.425083
 30
0.0
 10
29.998075
 20
10.211970
 30
0.0
 10
30.057693
 20
10.105928
 30
0.0
 11
28.882571
 21
11.989533
 31
0.0
 11
29.091907
 21
11.683825
 31
0.0
 11
29.296558
 21
11.373440
 31
0.0
 11
29.496487
 21
11.058324
 31
0.0
 11
29.690590
 21
10.740851
 31
0.0
 11
29.877702
 21
10.423401
 31
0.0
 11
30.057693
 21
10.105928
 31
0.0
  0
SPLINE
  5
193
100
AcDbEntity
  8
Calque_1
 62
7
100
AcDbSpline
 70
0
 71
3
 72
19
 73
15
 74
13
 40
0.000000
 40
0.000000
 40
0.000000
 40
0.000000
 40
0.190338
 40
0.392117
 40
0.605465
 40
0.824537
 40
1.043433
 40
1.262200
 40
1.402177
 40
1.539878
 40
1.675278
 40
1.812780
 40
1.943311
 40
2.067240
 40
2.067240
 40
2.067240
 40
2.067240
 10
30.057693
 20
10.105928
 30
0.0
 10
30.120762
 20
10.099005
 30
0.0
 10
30.250691
 20
10.084743
 30
0.0
 10
30.451770
 20
10.067277
 30
0.0
 10
30.662617
 20
10.051921
 30
0.0
 10
30.879418
 20
10.040103
 30
0.0
 10
31.098234
 20
10.033129
 30
0.0
 10
31.290787
 20
10.030868
 30
0.0
 10
31.456264
 20
10.032454
 30
0.0
 10
31.593937
 20
10.035490
 30
0.0
 10
31.730599
 20
10.043861
 30
0.0
 10
31.865132
 20
10.043319
 30
0.0
 10
31.995659
 20
10.050633
 30
0.0
 10
32.080038
 20
10.059318
 30
0.0
 10
32.121133
 20
10.063548
 30
0.0
 11
30.057693
 21
10.105928
 31
0.0
 11
30.246969
 21
10.085854
 31
0.0
 11
30.447963
 21
10.068065
 31
0.0
 11
30.660757
 21
10.052698
 31
0.0
 11
30.879512
 21
10.040924
 31
0.0
 11
31.098294
 21
10.033862
 31
0.0
 11
31.317048
 21
10.031508
 31
0.0
 11
31.457020
 21
10.032754
 31
0.0
 11
31.594673
 21
10.036412
 31
0.0
 11
31.729942
 21
10.042358
 31
0.0
 11
31.867424
 21
10.044721
 31
0.0
 11
31.997763
 21
10.051792
 31
0.0
 11
32.121133
 21
10.063548
 31
0.0
  0
SPLINE
  5
194
100
AcDbEntity
  8
Calque_1
 62
7
100
AcDbSpline
 70
0
 71
3
 72
10
 73
6
 74
4
 40
0.000000
 40
0.000000
 40
0.000000
 40
0.000000
 40
0.376157
 40
0.775596
 40
1.198285
 40
1.198285
 40
1.198285
 40
1.198285
 10
32.121133
 20
10.063548
 30
0.0
 10
32.036115
 20
10.155708
 30
0.0
 10
31.860817
 20
10.345733
 30
0.0
 10
31.589144
 20
10.638543
 30
0.0
 10
31.402273
 20
10.838989
 30
0.0
 10
31.306195
 20
10.942046
 30
0.0
 11
32.121133
 21
10.063548
 31
0.0
 11
31.865951
 21
10.339911
 31
0.0
 11
31.594302
 21
10.632756
 31
0.0
 11
31.306195
 21
10.942046
 31
0.0
  0
SPLINE
  5
195
100
AcDbEntity
  8
Calque_1
 62
7
100
AcDbSpline
 70
0
 71
3
 72
10
 73
6
 74
4
 40
0.000000
 40
0.000000
 40
0.000000
 40
0.000000
 40
0.435061
 40
0.861497
 40
1.279643
 40
1.279643
 40
1.279643
 40
1.279643
 10
31.306195
 20
10.942046
 30
0.0
 10
31.207830
 20
11.048610
 30
0.0
 10
31.013049
 20
11.259625
 30
0.0
 10
30.716773
 20
11.566559
 30
0.0
 10
30.516510
 20
11.764437
 30
0.0
 10
30.417361
 20
11.862405
 30
0.0
 11
31.306195
 21
10.942046
 31
0.0
 11
31.009905
 21
11.260621
 31
0.0
 11
30.713651
 21
11.567348
 31
0.0
 11
30.417361
 21
11.862405
 31
0.0
  0
SPLINE
  5
196
100
AcDbEntity
  8
Calque_1
 62
7
100
AcDbSpline
 70
0
 71
3
 72
22
 73
18
 74
16
 40
0.000000
 40
0.000000
 40
0.000000
 40
0.000000
 40
0.428161
 40
0.798886
 40
1.119651
 40
1.411033
 40
1.677341
 40
1.925793
 40
2.174504
 40
2.419619
 40
2.666926
 40
2.923294
 40
3.178037
 40
3.432060
 40
4.084467
 40
4.632652
 40
5.109898
 40
5.109898
 40
5.109898
 40
5.109898
 10
30.417361
 20
11.862405
 30
0.0
 10
30.559958
 20
11.870300
 30
0.0
 10
30.826024
 20
11.885030
 30
0.0
 10
31.194088
 20
11.956448
 30
0.0
 10
31.501874
 20
12.073156
 30
0.0
 10
31.756799
 20
12.219105
 30
0.0
 10
31.969858
 20
12.385018
 30
0.0
 10
32.137630
 20
12.578345
 30
0.0
 10
32.267343
 20
12.790085
 30
0.0
 10
32.364592
 20
13.018363
 30
0.0
 10
32.422791
 20
13.262016
 30
0.0
 10
32.454679
 20
13.512955
 30
0.0
 10
32.476754
 20
13.767108
 30
0.0
 10
32.487219
 20
14.154379
 30
0.0
 10
32.453032
 20
14.638144
 30
0.0
 10
32.314243
 20
15.191373
 30
0.0
 10
32.110522
 20
15.469272
 30
0.0
 10
32.015708
 20
15.598610
 30
0.0
 11
30.417361
 21
11.862405
 31
0.0
 11
30.844163
 21
11.896495
 31
0.0
 11
31.207415
 21
11.970557
 31
0.0
 11
31.507217
 21
12.084612
 31
0.0
 11
31.760132
 21
12.229310
 31
0.0
 11
31.968440
 21
12.395225
 31
0.0
 11
32.131986
 21
12.582257
 31
0.0
 11
32.262519
 21
12.793961
 31
0.0
 11
32.357777
 21
13.019808
 31
0.0
 11
32.417754
 21
13.259733
 31
0.0
 11
32.453050
 21
13.513659
 31
0.0
 11
32.474244
 21
13.767519
 31
0.0
 11
32.481314
 21
14.021444
 31
0.0
 11
32.429589
 21
14.671796
 31
0.0
 11
32.274396
 21
15.197555
 31
0.0
 11
32.015708
 21
15.598610
 31
0.0
  0
LWPOLYLINE
  5
197
100
AcDbEntity
  8
Calque_1
 62
7
100
AcDbPolyline
 90
2
 70
0
 10
28.237134
 20
11.312062
 30
0.0
 10
28.237134
 20
11.608684
 30
0.0
  0
SPLINE
  5
198
100
AcDbEntity
  8
Calque_1
 62
7
100
AcDbSpline
 70
0
 71
3
 72
10
 73
6
 74
4
 40
0.000000
 40
0.000000
 40
0.000000
 40
0.000000
 40
0.457374
 40
0.959666
 40
1.548081
 40
1.548081
 40
1.548081
 40
1.548081
 10
32.015708
 20
15.598610
 30
0.0
 10
31.901228
 20
15.701357
 30
0.0
 10
31.661025
 20
15.916943
 30
0.0
 10
31.156483
 20
16.079882
 30
0.0
 10
30.793184
 20
16.097230
 30
0.0
 10
30.597191
 20
16.106589
 30
0.0
 11
32.015708
 21
15.598610
 31
0.0
 11
31.655785
 21
15.880826
 31
0.0
 11
31.182893
 21
16.050150
 31
0.0
 11
30.597191
 21
16.106589
 31
0.0
  0
LWPOLYLINE
  5
199
100
AcDbEntity
  8
Calque_1
 62
7
100
AcDbPolyline
 90
1
 70
1
 10
30.597191
 20
16.106589
 30
0.0
  0
SPLINE
  5
19a
100
AcDbEntity
  8
Calque_1
 62
7
100
AcDbSpline
 70
0
 71
3
 72
19
 73
15
 74
13
 40
0.000000
 40
0.000000
 40
0.000000
 40
0.000000
 40
0.123842
 40
0.229998
 40
0.323807
 40
0.421393
 40
0.534317
 40
0.673764
 40
0.789554
 40
0.901034
 40
1.013939
 40
1.127804
 40
1.275097
 40
1.468440
 40
1.468440
 40
1.468440
 40
1.468440
 10
31.062797
 20
13.831291
 30
0.0
 10
31.104139
 20
13.829795
 30
0.0
 10
31.180918
 20
13.827016
 30
0.0
 10
31.286379
 20
13.799119
 30
0.0
 10
31.373810
 20
13.749973
 30
0.0
 10
31.443738
 20
13.672865
 30
0.0
 10
31.480160
 20
13.559433
 30
0.0
 10
31.490148
 20
13.436742
 30
0.0
 10
31.479657
 20
13.313927
 30
0.0
 10
31.442382
 20
13.206116
 30
0.0
 10
31.386335
 20
13.106499
 30
0.0
 10
31.285181
 20
13.027319
 30
0.0
 10
31.135198
 20
12.990194
 30
0.0
 10
31.021762
 20
12.986443
 30
0.0
 10
30.957377
 20
12.984314
 30
0.0
 11
31.062797
 21
13.831291
 31
0.0
 11
31.186280
 21
13.821863
 31
0.0
 11
31.288605
 21
13.793602
 31
0.0
 11
31.369755
 21
13.746541
 31
0.0
 11
31.434527
 21
13.673551
 31
0.0
 11
31.473511
 21
13.567569
 31
0.0
 11
31.486543
 21
13.428732
 31
0.0
 11
31.474757
 21
13.313544
 31
0.0
 11
31.439430
 21
13.207810
 31
0.0
 11
31.380607
 21
13.111438
 31
0.0
 11
31.291263
 21
13.040849
 31
0.0
 11
31.150202
 21
12.998457
 31
0.0
 11
30.957377
 21
12.984314
 31
0.0
  0
SPLINE
  5
19b
100
AcDbEntity
  8
Calque_1
 62
7
100
AcDbSpline
 70
0
 71
3
 72
10
 73
6
 74
4
 40
0.000000
 40
0.000000
 40
0.000000
 40
0.000000
 40
0.081183
 40
0.211822
 40
0.391867
 40
0.391867
 40
0.391867
 40
0.391867
 10
30.830253
 20
12.984314
 30
0.0
 10
30.803194
 20
12.984665
 30
0.0
 10
30.732591
 20
12.985581
 30
0.0
 10
30.602029
 20
12.989704
 30
0.0
 10
30.498526
 20
12.993161
 30
0.0
 10
30.438545
 20
12.995164
 30
0.0
 11
30.830253
 21
12.984314
 31
0.0
 11
30.749079
 21
12.985560
 31
0.0
 11
30.618492
 21
12.989218
 31
0.0
 11
30.438545
 21
12.995164
 31
0.0
  0
SPLINE
  5
19c
100
AcDbEntity
  8
Calque_1
 62
7
100
AcDbSpline
 70
0
 71
3
 72
13
 73
9
 74
7
 40
0.000000
 40
0.000000
 40
0.000000
 40
0.000000
 40
0.232184
 40
0.532607
 40
0.901238
 40
1.356887
 40
1.918436
 40
2.585957
 40
2.585957
 40
2.585957
 40
2.585957
 10
30.438545
 20
12.995164
 30
0.0
 10
30.361324
 20
13.000358
 30
0.0
 10
30.184188
 20
13.012271
 30
0.0
 10
29.884258
 20
13.029365
 30
0.0
 10
29.509903
 20
13.049580
 30
0.0
 10
29.048569
 20
13.073297
 30
0.0
 10
28.487707
 20
13.101554
 30
0.0
 10
28.078512
 20
13.121689
 30
0.0
 10
27.856274
 20
13.132624
 30
0.0
 11
30.438545
 21
12.995164
 31
0.0
 11
30.206861
 21
13.010401
 31
0.0
 11
29.906950
 21
13.027937
 31
0.0
 11
29.538859
 21
13.047874
 31
0.0
 11
29.083818
 21
13.071415
 31
0.0
 11
28.522981
 21
13.099676
 31
0.0
 11
27.856274
 21
13.132624
 31
0.0
  0
SPLINE
  5
19d
100
AcDbEntity
  8
Calque_1
 62
7
100
AcDbSpline
 70
0
 71
3
 72
10
 73
6
 74
4
 40
0.000000
 40
0.000000
 40
0.000000
 40
0.000000
 40
0.161608
 40
0.342650
 40
0.544012
 40
0.544012
 40
0.544012
 40
0.544012
 10
27.856274
 20
13.132624
 30
0.0
 10
27.845286
 20
13.185384
 30
0.0
 10
27.821989
 20
13.297249
 30
0.0
 10
27.801929
 20
13.477748
 30
0.0
 10
27.795893
 20
13.605077
 30
0.0
 10
27.792714
 20
13.672125
 30
0.0
 11
27.856274
 21
13.132624
 31
0.0
 11
27.825682
 21
13.291310
 31
0.0
 11
27.804486
 21
13.471107
 31
0.0
 11
27.792714
 21
13.672125
 31
0.0
  0
SPLINE
  5
19e
100
AcDbEntity
  8
Calque_1
 62
7
100
AcDbSpline
 70
0
 71
3
 72
10
 73
6
 74
4
 40
0.000000
 40
0.000000
 40
0.000000
 40
0.000000
 40
0.295872
 40
0.603363
 40
0.922441
 40
0.922441
 40
0.922441
 40
0.922441
 10
27.792714
 20
13.672125
 30
0.0
 10
27.891098
 20
13.679013
 30
0.0
 10
28.091729
 20
13.693058
 30
0.0
 10
28.398708
 20
13.710786
 30
0.0
 10
28.607342
 20
13.720439
 30
0.0
 10
28.713588
 20
13.725355
 30
0.0
 11
27.792714
 21
13.672125
 31
0.0
 11
28.087904
 21
13.692199
 31
0.0
 11
28.394880
 21
13.709988
 31
0.0
 11
28.713588
 21
13.725355
 31
0.0
  0
SPLINE
  5
19f
100
AcDbEntity
  8
Calque_1
 62
7
100
AcDbSpline
 70
0
 71
3
 72
13
 73
9
 74
7
 40
0.000000
 40
0.000000
 40
0.000000
 40
0.000000
 40
0.327488
 40
0.645423
 40
0.953865
 40
1.248075
 40
1.523341
 40
1.779768
 40
1.779768
 40
1.779768
 40
1.779768
 10
28.713588
 20
13.725355
 30
0.0
 10
28.822540
 20
13.732134
 30
0.0
 10
29.037267
 20
13.745494
 30
0.0
 10
29.354744
 20
13.762966
 30
0.0
 10
29.661234
 20
13.778103
 30
0.0
 10
29.953589
 20
13.791027
 30
0.0
 10
30.228675
 20
13.801961
 30
0.0
 10
30.405822
 20
13.807455
 30
0.0
 10
30.491257
 20
13.810105
 30
0.0
 11
28.713588
 21
13.725355
 31
0.0
 11
29.040469
 21
13.745296
 31
0.0
 11
29.357919
 21
13.762837
 31
0.0
 11
29.665985
 21
13.778065
 31
0.0
 11
29.959907
 21
13.791081
 31
0.0
 11
30.234964
 21
13.801796
 31
0.0
 11
30.491257
 21
13.810105
 31
0.0
  0
LWPOLYLINE
  5
1a0
100
AcDbEntity
  8
Calque_1
 62
7
100
AcDbPolyline
 90
2
 70
0
 10
30.957377
 20
12.984314
 30
0.0
 10
30.830253
 20
12.984314
 30
0.0
  0
SPLINE
  5
1a1
100
AcDbEntity
  8
Calque_1
 62
7
100
AcDbSpline
 70
0
 71
3
 72
10
 73
6
 74
4
 40
0.000000
 40
0.000000
 40
0.000000
 40
0.000000
 40
0.233142
 40
0.423793
 40
0.571989
 40
0.571989
 40
0.571989
 40
0.571989
 10
30.491257
 20
13.810105
 30
0.0
 10
30.568862
 20
13.814201
 30
0.0
 10
30.709928
 20
13.821646
 30
0.0
 10
30.900456
 20
13.829404
 30
0.0
 10
31.013402
 20
13.830720
 30
0.0
 10
31.062799
 20
13.831295
 30
0.0
 11
30.491257
 21
13.810105
 31
0.0
 11
30.724101
 21
13.821879
 31
0.0
 11
30.914622
 21
13.828941
 31
0.0
 11
31.062799
 21
13.831295
 31
0.0
  0
SPLINE
  5
1a2
100
AcDbEntity
  8
Calque_1
 62
7
100
AcDbSpline
 70
0
 71
3
 72
10
 73
6
 74
4
 40
0.000000
 40
0.000000
 40
0.000000
 40
0.000000
 40
0.442080
 40
0.879409
 40
1.312120
 40
1.312120
 40
1.312120
 40
1.312120
 10
45.429360
 20
16.053378
 30
0.0
 10
45.282000
 20
16.053159
 30
0.0
 10
44.988864
 20
16.052723
 30
0.0
 10
44.551499
 20
16.049366
 30
0.0
 10
44.261516
 20
16.045147
 30
0.0
 10
44.117294
 20
16.043048
 30
0.0
 11
45.429360
 21
16.053378
 31
0.0
 11
44.987282
 21
16.052262
 31
0.0
 11
44.549966
 21
16.048851
 31
0.0
 11
44.117294
 21
16.043048
 31
0.0
  0
SPLINE
  5
1a3
100
AcDbEntity
  8
Calque_1
 62
7
100
AcDbSpline
 70
0
 71
3
 72
19
 73
15
 74
13
 40
0.000000
 40
0.000000
 40
0.000000
 40
0.000000
 40
0.425758
 40
0.842366
 40
1.249964
 40
1.507880
 40
1.747777
 40
1.976019
 40
2.197283
 40
2.414187
 40
2.631426
 40
2.843176
 40
3.061550
 40
3.288945
 40
3.288945
 40
3.288945
 40
3.288945
 10
44.117294
 20
16.043048
 30
0.0
 10
43.975364
 20
16.042299
 30
0.0
 10
43.694554
 20
16.040816
 30
0.0
 10
43.278208
 20
16.024280
 30
0.0
 10
42.917702
 20
16.010153
 30
0.0
 10
42.617663
 20
15.971018
 30
0.0
 10
42.384861
 20
15.900208
 30
0.0
 10
42.179214
 20
15.795159
 30
0.0
 10
41.999570
 20
15.663134
 30
0.0
 10
41.842502
 20
15.510307
 30
0.0
 10
41.711341
 20
15.338434
 30
0.0
 10
41.607142
 20
15.148921
 30
0.0
 10
41.520889
 20
14.946824
 30
0.0
 10
41.480972
 20
14.803549
 30
0.0
 10
41.460610
 20
14.730462
 30
0.0
 11
44.117294
 21
16.043048
 31
0.0
 11
43.691562
 21
16.038332
 31
0.0
 11
43.275194
 21
16.024198
 31
0.0
 11
42.868276
 21
16.000668
 31
0.0
 11
42.613127
 21
15.962983
 31
0.0
 11
42.383871
 21
15.892329
 31
0.0
 11
42.180462
 21
15.788795
 31
0.0
 11
42.001738
 21
15.658352
 31
0.0
 11
41.846546
 21
15.506817
 31
0.0
 11
41.714859
 21
15.334042
 31
0.0
 11
41.611312
 21
15.149336
 31
0.0
 11
41.526526
 21
14.948093
 31
0.0
 11
41.460610
 21
14.730462
 31
0.0
  0
SPLINE
  5
1a4
100
AcDbEntity
  8
Calque_1
 62
7
100
AcDbSpline
 70
0
 71
3
 72
13
 73
9
 74
7
 40
0.000000
 40
0.000000
 40
0.000000
 40
0.000000
 40
0.222453
 40
0.442367
 40
0.661141
 40
0.888204
 40
1.117734
 40
1.349572
 40
1.349572
 40
1.349572
 40
1.349572
 10
41.460610
 20
14.730462
 30
0.0
 10
41.445790
 20
14.657778
 30
0.0
 10
41.416320
 20
14.513240
 30
0.0
 10
41.392043
 20
14.293855
 30
0.0
 10
41.385053
 20
14.071920
 30
0.0
 10
41.387838
 20
13.846803
 30
0.0
 10
41.390666
 20
13.617342
 30
0.0
 10
41.394908
 20
13.463608
 30
0.0
 10
41.397040
 20
13.386357
 30
0.0
 11
41.460610
 21
14.730462
 31
0.0
 11
41.419495
 21
14.511841
 31
0.0
 11
41.394892
 21
14.293308
 31
0.0
 11
41.386710
 21
14.074687
 31
0.0
 11
41.387826
 21
13.847627
 31
0.0
 11
41.391238
 21
13.618122
 31
0.0
 11
41.397040
 21
13.386357
 31
0.0
  0
SPLINE
  5
1a5
100
AcDbEntity
  8
Calque_1
 62
7
100
AcDbSpline
 70
0
 71
3
 72
25
 73
21
 74
19
 40
0.000000
 40
0.000000
 40
0.000000
 40
0.000000
 40
0.222661
 40
0.438249
 40
0.646829
 40
0.847337
 40
1.038686
 40
1.220898
 40
1.380800
 40
1.519319
 40
1.636631
 40
2.203272
 40
2.692738
 40
3.133361
 40
3.552421
 40
3.968573
 40
4.407331
 40
4.849527
 40
5.258889
 40
5.635412
 40
5.635412
 40
5.635412
 40
5.635412
 10
41.397040
 20
13.386357
 30
0.0
 10
41.401710
 20
13.312284
 30
0.0
 10
41.410903
 20
13.166490
 30
0.0
 10
41.425136
 20
12.951351
 30
0.0
 10
41.438933
 20
12.743583
 30
0.0
 10
41.453939
 20
12.543994
 30
0.0
 10
41.471751
 20
12.353458
 30
0.0
 10
41.491253
 20
12.176698
 30
0.0
 10
41.511702
 20
12.017797
 30
0.0
 10
41.529290
 20
11.880334
 30
0.0
 10
41.563487
 20
11.608358
 30
0.0
 10
41.644676
 20
11.223683
 30
0.0
 10
41.846774
 20
10.761872
 30
0.0
 10
42.140574
 20
10.412707
 30
0.0
 10
42.497531
 20
10.173488
 30
0.0
 10
42.901177
 20
10.026293
 30
0.0
 10
43.335440
 20
9.992357
 30
0.0
 10
43.765033
 20
10.003195
 30
0.0
 10
44.174486
 20
10.007582
 30
0.0
 10
44.436284
 20
10.016782
 30
0.0
 10
44.561713
 20
10.021190
 30
0.0
 11
41.397040
 21
13.386357
 31
0.0
 11
41.411168
 21
13.164145
 31
0.0
 11
41.425299
 21
12.949020
 31
0.0
 11
41.439420
 21
12.740919
 31
0.0
 11
41.454787
 21
12.541001
 31
0.0
 11
41.472576
 21
12.350481
 31
0.0
 11
41.492650
 21
12.169377
 31
0.0
 11
41.512591
 21
12.010724
 31
0.0
 11
41.530132
 21
11.873320
 31
0.0
 11
41.545360
 21
11.757000
 31
0.0
 11
41.670031
 21
11.204244
 31
0.0
 11
41.874682
 21
10.759615
 31
0.0
 11
42.159275
 21
10.423230
 31
0.0
 11
42.506137
 21
10.188073
 31
0.0
 11
42.897651
 21
10.047011
 31
0.0
 11
43.333883
 21
10.000000
 31
0.0
 11
43.776073
 21
10.002363
 31
0.0
 11
44.185374
 21
10.009434
 31
0.0
 11
44.561713
 21
10.021190
 31
0.0
  0
SPLINE
  5
1a6
100
AcDbEntity
  8
Calque_1
 62
7
100
AcDbSpline
 70
0
 71
3
 72
10
 73
6
 74
4
 40
0.000000
 40
0.000000
 40
0.000000
 40
0.000000
 40
0.362389
 40
0.729909
 40
1.102768
 40
1.102768
 40
1.102768
 40
1.102768
 10
44.561713
 20
10.021190
 30
0.0
 10
44.682468
 20
10.024513
 30
0.0
 10
44.925688
 20
10.031205
 30
0.0
 10
45.292734
 20
10.052522
 30
0.0
 10
45.538602
 20
10.073956
 30
0.0
 10
45.662422
 20
10.084750
 30
0.0
 11
44.561713
 21
10.021190
 31
0.0
 11
44.923910
 21
10.032986
 31
0.0
 11
45.290819
 21
10.054174
 31
0.0
 11
45.662422
 21
10.084750
 31
0.0
  0
SPLINE
  5
1a7
100
AcDbEntity
  8
Calque_1
 62
7
100
AcDbSpline
 70
0
 71
3
 72
13
 73
9
 74
7
 40
0.000000
 40
0.000000
 40
0.000000
 40
0.000000
 40
0.436297
 40
0.816358
 40
1.175465
 40
1.574695
 40
2.044463
 40
2.602774
 40
2.602774
 40
2.602774
 40
2.602774
 10
45.662422
 20
10.084750
 30
0.0
 10
45.807370
 20
10.102957
 30
0.0
 10
46.078583
 20
10.137024
 30
0.0
 10
46.440336
 20
10.307532
 30
0.0
 10
46.713956
 20
10.580778
 30
0.0
 10
46.896492
 20
10.953055
 30
0.0
 10
47.010208
 20
11.418170
 30
0.0
 10
47.028251
 20
11.760995
 30
0.0
 10
47.038049
 20
11.947170
 30
0.0
 11
45.662422
 21
10.084750
 31
0.0
 11
46.091560
 21
10.163464
 31
0.0
 11
46.433614
 21
10.329130
 31
0.0
 11
46.688714
 21
10.581878
 31
0.0
 11
46.873359
 21
10.935843
 31
0.0
 11
46.989819
 21
11.390946
 31
0.0
 11
47.038049
 21
11.947170
 31
0.0
  0
SPLINE
  5
1a8
100
AcDbEntity
  8
Calque_1
 62
7
100
AcDbSpline
 70
0
 71
3
 72
16
 73
12
 74
10
 40
0.000000
 40
0.000000
 40
0.000000
 40
0.000000
 40
0.482375
 40
0.927133
 40
1.334158
 40
1.695112
 40
2.001858
 40
2.254584
 40
2.803323
 40
3.278788
 40
3.708483
 40
3.708483
 40
3.708483
 40
3.708483
 10
47.038049
 20
11.947170
 30
0.0
 10
47.042480
 20
12.107901
 30
0.0
 10
47.050998
 20
12.416828
 30
0.0
 10
47.061774
 20
12.861418
 30
0.0
 10
47.070012
 20
13.265578
 30
0.0
 10
47.076139
 20
13.623777
 30
0.0
 10
47.078908
 20
13.930554
 30
0.0
 10
47.083876
 20
14.300011
 30
0.0
 10
47.055472
 20
14.725241
 30
0.0
 10
46.927583
 20
15.201836
 30
0.0
 10
46.751239
 20
15.449173
 30
0.0
 10
46.667526
 20
15.566588
 30
0.0
 11
47.038049
 21
11.947170
 31
0.0
 11
47.051065
 21
12.429369
 31
0.0
 11
47.061780
 21
12.873999
 31
0.0
 11
47.070089
 21
13.280938
 31
0.0
 11
47.075923
 21
13.641845
 31
0.0
 11
47.079319
 21
13.948573
 31
0.0
 11
47.080419
 21
14.201296
 31
0.0
 11
47.034521
 21
14.748112
 31
0.0
 11
46.896869
 21
15.203215
 31
0.0
 11
46.667526
 21
15.566588
 31
0.0
  0
LWPOLYLINE
  5
1a9
100
AcDbEntity
  8
Calque_1
 62
7
100
AcDbPolyline
 90
1
 70
1
 10
31.062799
 20
13.831295
 30
0.0
  0
SPLINE
  5
1aa
100
AcDbEntity
  8
Calque_1
 62
7
100
AcDbSpline
 70
0
 71
3
 72
10
 73
6
 74
4
 40
0.000000
 40
0.000000
 40
0.000000
 40
0.000000
 40
0.416162
 40
0.859623
 40
1.371641
 40
1.371641
 40
1.371641
 40
1.371641
 10
46.667526
 20
15.566588
 30
0.0
 10
46.567657
 20
15.664723
 30
0.0
 10
46.361366
 20
15.867431
 30
0.0
 10
45.918539
 20
16.027782
 30
0.0
 10
45.600036
 20
16.044448
 30
0.0
 10
45.429358
 20
16.053379
 30
0.0
 11
46.667526
 21
15.566588
 31
0.0
 11
46.351222
 21
15.837037
 31
0.0
 11
45.938512
 21
15.999296
 31
0.0
 11
45.429358
 21
16.053379
 31
0.0
  0
SPLINE
  5
1ab
100
AcDbEntity
  8
Calque_1
 62
7
100
AcDbSpline
 70
0
 71
3
 72
10
 73
6
 74
4
 40
0.000000
 40
0.000000
 40
0.000000
 40
0.000000
 40
0.218768
 40
0.437664
 40
0.656734
 40
0.656734
 40
0.656734
 40
0.656734
 10
44.307464
 20
13.905189
 30
0.0
 10
44.380387
 20
13.904716
 30
0.0
 10
44.526276
 20
13.903769
 30
0.0
 10
44.745106
 20
13.896685
 30
0.0
 10
44.890853
 20
13.888229
 30
0.0
 10
44.963755
 20
13.883999
 30
0.0
 11
44.307464
 21
13.905189
 31
0.0
 11
44.526219
 21
13.902826
 31
0.0
 11
44.745001
 21
13.895755
 31
0.0
 11
44.963755
 21
13.883999
 31
0.0
  0
SPLINE
  5
1ac
100
AcDbEntity
  8
Calque_1
 62
7
100
AcDbSpline
 70
0
 71
3
 72
10
 73
6
 74
4
 40
0.000000
 40
0.000000
 40
0.000000
 40
0.000000
 40
0.220017
 40
0.442454
 40
0.667393
 40
0.667393
 40
0.667393
 40
0.667393
 10
44.963755
 20
13.883999
 30
0.0
 10
45.037050
 20
13.881430
 30
0.0
 10
45.184445
 20
13.876264
 30
0.0
 10
45.406669
 20
13.865770
 30
0.0
 10
45.555532
 20
13.856926
 30
0.0
 10
45.630380
 20
13.852479
 30
0.0
 11
44.963755
 21
13.883999
 31
0.0
 11
45.183621
 21
13.875849
 31
0.0
 11
45.405811
 21
13.865362
 31
0.0
 11
45.630380
 21
13.852479
 31
0.0
  0
SPLINE
  5
1ad
100
AcDbEntity
  8
Calque_1
 62
7
100
AcDbSpline
 70
0
 71
3
 72
10
 73
6
 74
4
 40
0.000000
 40
0.000000
 40
0.000000
 40
0.000000
 40
0.408571
 40
0.815285
 40
1.220382
 40
1.220382
 40
1.220382
 40
1.220382
 10
45.630380
 20
13.852479
 30
0.0
 10
45.655081
 20
13.718542
 30
0.0
 10
45.704371
 20
13.451277
 30
0.0
 10
45.764689
 20
13.048867
 30
0.0
 10
45.795404
 20
12.779999
 30
0.0
 10
45.810731
 20
12.645833
 30
0.0
 11
45.630380
 21
13.852479
 31
0.0
 11
45.702225
 21
13.450274
 31
0.0
 11
45.762408
 21
13.048038
 31
0.0
 11
45.810731
 21
12.645833
 31
0.0
  0
SPLINE
  5
1ae
100
AcDbEntity
  8
Calque_1
 62
7
100
AcDbSpline
 70
0
 71
3
 72
10
 73
6
 74
4
 40
0.000000
 40
0.000000
 40
0.000000
 40
0.000000
 40
0.400261
 40
0.804699
 40
1.213332
 40
1.213332
 40
1.213332
 40
1.213332
 10
45.810731
 20
12.645833
 30
0.0
 10
45.826730
 20
12.513374
 30
0.0
 10
45.858894
 20
12.247073
 30
0.0
 10
45.900931
 20
11.844798
 30
0.0
 10
45.925162
 20
11.574858
 30
0.0
 10
45.937339
 20
11.439191
 30
0.0
 11
45.810731
 21
12.645833
 31
0.0
 11
45.857667
 21
12.248333
 31
0.0
 11
45.899811
 21
11.846097
 31
0.0
 11
45.937339
 21
11.439191
 31
0.0
  0
SPLINE
  5
1af
100
AcDbEntity
  8
Calque_1
 62
7
100
AcDbSpline
 70
0
 71
3
 72
13
 73
9
 74
7
 40
0.000000
 40
0.000000
 40
0.000000
 40
0.000000
 40
0.208785
 40
0.436146
 40
0.682268
 40
0.942578
 40
1.212304
 40
1.491326
 40
1.491326
 40
1.491326
 40
1.491326
 10
45.937339
 20
11.439191
 30
0.0
 10
45.868405
 20
11.429619
 30
0.0
 10
45.724403
 20
11.409622
 30
0.0
 10
45.498707
 20
11.381590
 30
0.0
 10
45.255709
 20
11.353646
 30
0.0
 10
44.998498
 20
11.325742
 30
0.0
 10
44.730304
 20
11.297410
 30
0.0
 10
44.548313
 20
11.279034
 30
0.0
 10
44.455776
 20
11.269691
 30
0.0
 11
45.937339
 21
11.439191
 31
0.0
 11
45.730473
 21
11.410950
 31
0.0
 11
45.504875
 21
11.382689
 31
0.0
 11
45.260379
 21
11.354441
 31
0.0
 11
45.001606
 21
11.326200
 31
0.0
 11
44.733365
 21
11.297939
 31
0.0
 11
44.455776
 21
11.269691
 31
0.0
  0
SPLINE
  5
1b0
100
AcDbEntity
  8
Calque_1
 62
7
100
AcDbSpline
 70
0
 71
3
 72
13
 73
9
 74
7
 40
0.000000
 40
0.000000
 40
0.000000
 40
0.000000
 40
0.277155
 40
0.556655
 40
0.838497
 40
1.116677
 40
1.385260
 40
1.644356
 40
1.644356
 40
1.644356
 40
1.644356
 10
44.455776
 20
11.269691
 30
0.0
 10
44.363660
 20
11.262649
 30
0.0
 10
44.178648
 20
11.248504
 30
0.0
 10
43.899927
 20
11.227663
 30
0.0
 10
43.620879
 20
11.206618
 30
0.0
 10
43.345409
 20
11.186516
 30
0.0
 10
43.077385
 20
11.168583
 30
0.0
 10
42.901786
 20
11.158407
 30
0.0
 10
42.815565
 20
11.153411
 30
0.0
 11
44.455776
 21
11.269691
 31
0.0
 11
44.179422
 21
11.248640
 31
0.0
 11
43.900708
 21
11.227692
 31
0.0
 11
43.619653
 21
11.206641
 31
0.0
 11
43.342198
 21
11.186567
 31
0.0
 11
43.074205
 21
11.168778
 31
0.0
 11
42.815565
 21
11.153411
 31
0.0
  0
SPLINE
  5
1b1
100
AcDbEntity
  8
Calque_1
 62
7
100
AcDbSpline
 70
0
 71
3
 72
16
 73
12
 74
10
 40
0.000000
 40
0.000000
 40
0.000000
 40
0.000000
 40
0.259970
 40
0.517585
 40
0.772854
 40
1.035152
 40
1.299761
 40
1.566699
 40
1.941922
 40
2.319705
 40
2.700028
 40
2.700028
 40
2.700028
 40
2.700028
 10
42.815565
 20
11.153411
 30
0.0
 10
42.813202
 20
11.240035
 30
0.0
 10
42.808498
 20
11.412500
 30
0.0
 10
42.801535
 20
11.670023
 30
0.0
 10
42.794069
 20
11.928310
 30
0.0
 10
42.788015
 20
12.188968
 30
0.0
 10
42.784411
 20
12.453562
 30
0.0
 10
42.782780
 20
12.755819
 30
0.0
 10
42.786004
 20
13.095802
 30
0.0
 10
42.796446
 20
13.473467
 30
0.0
 10
42.809178
 20
13.725854
 30
0.0
 10
42.815565
 20
13.852471
 30
0.0
 11
42.815565
 21
11.153411
 31
0.0
 11
42.808487
 21
11.413285
 31
0.0
 11
42.801433
 21
11.670803
 31
0.0
 11
42.794375
 21
11.925974
 31
0.0
 11
42.788451
 21
12.188206
 31
0.0
 11
42.784783
 21
12.452789
 31
0.0
 11
42.783525
 21
12.719724
 31
0.0
 11
42.787127
 21
13.094929
 31
0.0
 11
42.797850
 21
13.472561
 31
0.0
 11
42.815565
 21
13.852471
 31
0.0
  0
SPLINE
  5
1b2
100
AcDbEntity
  8
Calque_1
 62
7
100
AcDbSpline
 70
0
 71
3
 72
10
 73
6
 74
4
 40
0.000000
 40
0.000000
 40
0.000000
 40
0.000000
 40
0.247200
 40
0.494218
 40
0.741217
 40
0.741217
 40
0.741217
 40
0.741217
 10
42.815565
 20
13.852471
 30
0.0
 10
42.897845
 20
13.856924
 30
0.0
 10
43.062345
 20
13.865827
 30
0.0
 10
43.309203
 20
13.876270
 30
0.0
 10
43.473796
 20
13.881417
 30
0.0
 10
43.556089
 20
13.883991
 30
0.0
 11
42.815565
 21
13.852471
 31
0.0
 11
43.062429
 21
13.865345
 31
0.0
 11
43.309225
 21
13.875817
 31
0.0
 11
43.556089
 21
13.883991
 31
0.0
  0
LWPOLYLINE
  5
1b3
100
AcDbEntity
  8
Calque_1
 62
7
100
AcDbPolyline
 90
1
 70
1
 10
45.429358
 20
16.053379
 30
0.0
  0
SPLINE
  5
1b4
100
AcDbEntity
  8
Calque_1
 62
7
100
AcDbSpline
 70
0
 71
3
 72
10
 73
6
 74
4
 40
0.000000
 40
0.000000
 40
0.000000
 40
0.000000
 40
0.253087
 40
0.503639
 40
0.751760
 40
0.751760
 40
0.751760
 40
0.751760
 10
43.556089
 20
13.883991
 30
0.0
 10
43.640347
 20
13.888224
 30
0.0
 10
43.808018
 20
13.896647
 30
0.0
 10
44.058532
 20
13.903754
 30
0.0
 10
44.224757
 20
13.904707
 30
0.0
 10
44.307464
 20
13.905181
 30
0.0
 11
43.556089
 21
13.883991
 31
0.0
 11
43.808902
 21
13.895765
 31
0.0
 11
44.059355
 21
13.902827
 31
0.0
 11
44.307464
 21
13.905181
 31
0.0
  0
LWPOLYLINE
  5
1b5
100
AcDbEntity
  8
Calque_1
 62
7
100
AcDbPolyline
 90
1
 70
1
 10
44.307464
 20
13.905181
 30
0.0
  0
ENDSEC
  0
SECTION
  2
OBJECTS
  0
DICTIONARY
  5
C
330
0
100
AcDbDictionary
  3
ACAD_GROUP
350
D
  3
ACAD_MLINESTYLE
350
17
  0
DICTIONARY
  5
D
330
C
100
AcDbDictionary
  0
DICTIONARY
  5
1A
330
C
100
AcDbDictionary
  0
DICTIONARY
  5
17
330
C
100
AcDbDictionary
  3
STANDARD
350
18
  0
DICTIONARY
  5
19
330
C
100
AcDbDictionary
  0
ENDSEC
  0
EOF
